  0
SECTION
  2
HEADER
  9
$ACADVER
  1
AC1024
  9
$ACADMAINTVER
 70
   181
  9
$DWGCODEPAGE
  3
ANSI_1250
  9
$LASTSAVEDBY
  1
user
  9
$INSBASE
 10
0.0
 20
0.0
 30
0.0
  9
$EXTMIN
 10
1.000000000000000E+20
 20
1.000000000000000E+20
 30
1.000000000000000E+20
  9
$EXTMAX
 10
0.0
 20
0.0
 30
0.0
  9
$LIMMIN
 10
0.0
 20
0.0
  9
$LIMMAX
 10
420.0
 20
297.0
  9
$ORTHOMODE
 70
     0
  9
$REGENMODE
 70
     1
  9
$FILLMODE
 70
     1
  9
$QTEXTMODE
 70
     0
  9
$MIRRTEXT
 70
     0
  9
$LTSCALE
 40
1.0
  9
$ATTMODE
 70
     1
  9
$TEXTSIZE
 40
2.5
  9
$TRACEWID
 40
1.0
  9
$TEXTSTYLE
  7
Standard
  9
$CLAYER
  8
0
  9
$CELTYPE
  6
ByLayer
  9
$CECOLOR
 62
   256
  9
$CELTSCALE
 40
1.0
  9
$DISPSILH
 70
     0
  9
$DIMSCALE
 40
1.0
  9
$DIMASZ
 40
0.18
  9
$DIMEXO
 40
0.0625
  9
$DIMDLI
 40
0.38
  9
$DIMRND
 40
0.0
  9
$DIMDLE
 40
0.0
  9
$DIMEXE
 40
0.18
  9
$DIMTP
 40
0.0
  9
$DIMTM
 40
0.0
  9
$DIMTXT
 40
0.18
  9
$DIMCEN
 40
0.09
  9
$DIMTSZ
 40
0.0
  9
$DIMTOL
 70
     0
  9
$DIMLIM
 70
     0
  9
$DIMTIH
 70
     1
  9
$DIMTOH
 70
     1
  9
$DIMSE1
 70
     0
  9
$DIMSE2
 70
     0
  9
$DIMTAD
 70
     0
  9
$DIMZIN
 70
     0
  9
$DIMBLK
  1

  9
$DIMASO
 70
     1
  9
$DIMSHO
 70
     1
  9
$DIMPOST
  1

  9
$DIMAPOST
  1

  9
$DIMALT
 70
     0
  9
$DIMALTD
 70
     2
  9
$DIMALTF
 40
25.4
  9
$DIMLFAC
 40
1.0
  9
$DIMTOFL
 70
     0
  9
$DIMTVP
 40
0.0
  9
$DIMTIX
 70
     0
  9
$DIMSOXD
 70
     0
  9
$DIMSAH
 70
     0
  9
$DIMBLK1
  1

  9
$DIMBLK2
  1

  9
$DIMSTYLE
  2
Standard
  9
$DIMCLRD
 70
     0
  9
$DIMCLRE
 70
     0
  9
$DIMCLRT
 70
     0
  9
$DIMTFAC
 40
1.0
  9
$DIMGAP
 40
0.09
  9
$DIMJUST
 70
     0
  9
$DIMSD1
 70
     0
  9
$DIMSD2
 70
     0
  9
$DIMTOLJ
 70
     1
  9
$DIMTZIN
 70
     0
  9
$DIMALTZ
 70
     0
  9
$DIMALTTZ
 70
     0
  9
$DIMUPT
 70
     0
  9
$DIMDEC
 70
     4
  9
$DIMTDEC
 70
     4
  9
$DIMALTU
 70
     2
  9
$DIMALTTD
 70
     2
  9
$DIMTXSTY
  7
Standard
  9
$DIMAUNIT
 70
     0
  9
$DIMADEC
 70
     0
  9
$DIMALTRND
 40
0.0
  9
$DIMAZIN
 70
     0
  9
$DIMDSEP
 70
    46
  9
$DIMATFIT
 70
     3
  9
$DIMFRAC
 70
     0
  9
$DIMLDRBLK
  1

  9
$DIMLUNIT
 70
     2
  9
$DIMLWD
 70
    -2
  9
$DIMLWE
 70
    -2
  9
$DIMTMOVE
 70
     0
  9
$DIMFXL
 40
1.0
  9
$DIMFXLON
 70
     0
  9
$DIMJOGANG
 40
0.7853981633974483
  9
$DIMTFILL
 70
     0
  9
$DIMTFILLCLR
 70
     0
  9
$DIMARCSYM
 70
     0
  9
$DIMLTYPE
  6

  9
$DIMLTEX1
  6

  9
$DIMLTEX2
  6

  9
$DIMTXTDIRECTION
 70
     0
  9
$LUNITS
 70
     2
  9
$LUPREC
 70
     2
  9
$SKETCHINC
 40
1.0
  9
$FILLETRAD
 40
0.0
  9
$AUNITS
 70
     0
  9
$AUPREC
 70
     0
  9
$MENU
  1
.
  9
$ELEVATION
 40
0.0
  9
$PELEVATION
 40
0.0
  9
$THICKNESS
 40
0.0
  9
$LIMCHECK
 70
     0
  9
$CHAMFERA
 40
0.0
  9
$CHAMFERB
 40
0.0
  9
$CHAMFERC
 40
0.0
  9
$CHAMFERD
 40
0.0
  9
$SKPOLY
 70
     0
  9
$TDCREATE
 40
2457603.310994525
  9
$TDUCREATE
 40
2457603.227661192
  9
$TDUPDATE
 40
2458382.728147685
  9
$TDUUPDATE
 40
2458382.644814352
  9
$TDINDWG
 40
3.3406530787
  9
$TDUSRTIMER
 40
3.3406426505
  9
$USRTIMER
 70
     1
  9
$ANGBASE
 50
0.0
  9
$ANGDIR
 70
     0
  9
$PDMODE
 70
     0
  9
$PDSIZE
 40
0.0
  9
$PLINEWID
 40
0.0
  9
$SPLFRAME
 70
     0
  9
$SPLINETYPE
 70
     6
  9
$SPLINESEGS
 70
     8
  9
$HANDSEED
  5
14D
  9
$SURFTAB1
 70
     6
  9
$SURFTAB2
 70
     6
  9
$SURFTYPE
 70
     6
  9
$SURFU
 70
     6
  9
$SURFV
 70
     6
  9
$UCSBASE
  2

  9
$UCSNAME
  2

  9
$UCSORG
 10
0.0
 20
0.0
 30
0.0
  9
$UCSXDIR
 10
1.0
 20
0.0
 30
0.0
  9
$UCSYDIR
 10
0.0
 20
1.0
 30
0.0
  9
$UCSORTHOREF
  2

  9
$UCSORTHOVIEW
 70
     0
  9
$UCSORGTOP
 10
0.0
 20
0.0
 30
0.0
  9
$UCSORGBOTTOM
 10
0.0
 20
0.0
 30
0.0
  9
$UCSORGLEFT
 10
0.0
 20
0.0
 30
0.0
  9
$UCSORGRIGHT
 10
0.0
 20
0.0
 30
0.0
  9
$UCSORGFRONT
 10
0.0
 20
0.0
 30
0.0
  9
$UCSORGBACK
 10
0.0
 20
0.0
 30
0.0
  9
$PUCSBASE
  2

  9
$PUCSNAME
  2

  9
$PUCSORG
 10
0.0
 20
0.0
 30
0.0
  9
$PUCSXDIR
 10
1.0
 20
0.0
 30
0.0
  9
$PUCSYDIR
 10
0.0
 20
1.0
 30
0.0
  9
$PUCSORTHOREF
  2

  9
$PUCSORTHOVIEW
 70
     0
  9
$PUCSORGTOP
 10
0.0
 20
0.0
 30
0.0
  9
$PUCSORGBOTTOM
 10
0.0
 20
0.0
 30
0.0
  9
$PUCSORGLEFT
 10
0.0
 20
0.0
 30
0.0
  9
$PUCSORGRIGHT
 10
0.0
 20
0.0
 30
0.0
  9
$PUCSORGFRONT
 10
0.0
 20
0.0
 30
0.0
  9
$PUCSORGBACK
 10
0.0
 20
0.0
 30
0.0
  9
$USERI1
 70
     0
  9
$USERI2
 70
     0
  9
$USERI3
 70
     0
  9
$USERI4
 70
     0
  9
$USERI5
 70
     0
  9
$USERR1
 40
0.0
  9
$USERR2
 40
0.0
  9
$USERR3
 40
0.0
  9
$USERR4
 40
0.0
  9
$USERR5
 40
0.0
  9
$WORLDVIEW
 70
     1
  9
$SHADEDGE
 70
     3
  9
$SHADEDIF
 70
    70
  9
$TILEMODE
 70
     1
  9
$MAXACTVP
 70
    64
  9
$PINSBASE
 10
0.0
 20
0.0
 30
0.0
  9
$PLIMCHECK
 70
     0
  9
$PEXTMIN
 10
0.0
 20
0.0
 30
0.0
  9
$PEXTMAX
 10
0.0
 20
0.0
 30
0.0
  9
$PLIMMIN
 10
0.0
 20
0.0
  9
$PLIMMAX
 10
12.0
 20
9.0
  9
$UNITMODE
 70
     0
  9
$VISRETAIN
 70
     0
  9
$PLINEGEN
 70
     1
  9
$PSLTSCALE
 70
     1
  9
$TREEDEPTH
 70
  3020
  9
$CMLSTYLE
  2
Standard
  9
$CMLJUST
 70
     0
  9
$CMLSCALE
 40
20.0
  9
$PROXYGRAPHICS
 70
     1
  9
$MEASUREMENT
 70
     1
  9
$CELWEIGHT
370
    -1
  9
$ENDCAPS
280
     0
  9
$JOINSTYLE
280
     0
  9
$LWDISPLAY
290
     0
  9
$INSUNITS
 70
     0
  9
$HYPERLINKBASE
  1

  9
$STYLESHEET
  1

  9
$XEDIT
290
     1
  9
$CEPSNTYPE
380
     0
  9
$PSTYLEMODE
290
     1
  9
$FINGERPRINTGUID
  2
{793E7E7C-E79F-4B69-B074-AD4E79957572}
  9
$VERSIONGUID
  2
{2CA59BC1-BCA5-4D04-9DD9-1E59C56F650F}
  9
$EXTNAMES
290
     1
  9
$PSVPSCALE
 40
0.0
  9
$OLESTARTUP
290
     0
  9
$SORTENTS
280
   127
  9
$INDEXCTL
280
     0
  9
$HIDETEXT
280
     1
  9
$XCLIPFRAME
280
     0
  9
$HALOGAP
280
     0
  9
$OBSCOLOR
 70
   257
  9
$OBSLTYPE
280
     0
  9
$INTERSECTIONDISPLAY
280
     0
  9
$INTERSECTIONCOLOR
 70
   257
  9
$DIMASSOC
280
     2
  9
$PROJECTNAME
  1

  9
$CAMERADISPLAY
290
     0
  9
$LENSLENGTH
 40
50.0
  9
$CAMERAHEIGHT
 40
0.0
  9
$STEPSPERSEC
 40
2.0
  9
$STEPSIZE
 40
6.0
  9
$3DDWFPREC
 40
2.0
  9
$PSOLWIDTH
 40
5.0
  9
$PSOLHEIGHT
 40
80.0
  9
$LOFTANG1
 40
1.570796326794896
  9
$LOFTANG2
 40
1.570796326794896
  9
$LOFTMAG1
 40
0.0
  9
$LOFTMAG2
 40
0.0
  9
$LOFTPARAM
 70
     7
  9
$LOFTNORMALS
280
     1
  9
$LATITUDE
 40
37.795
  9
$LONGITUDE
 40
-122.394
  9
$NORTHDIRECTION
 40
0.0
  9
$TIMEZONE
 70
 -8000
  9
$LIGHTGLYPHDISPLAY
280
     1
  9
$TILEMODELIGHTSYNCH
280
     1
  9
$CMATERIAL
347
10F
  9
$SOLIDHIST
280
     1
  9
$SHOWHIST
280
     1
  9
$DWFFRAME
280
     2
  9
$DGNFRAME
280
     0
  9
$REALWORLDSCALE
290
     1
  9
$INTERFERECOLOR
 62
     1
  9
$INTERFEREOBJVS
345
118
  9
$INTERFEREVPVS
346
119
  9
$CSHADOW
280
     0
  9
$SHADOWPLANELOCATION
 40
0.0
  0
ENDSEC
  0
SECTION
  2
CLASSES
  0
CLASS
  1
ACDBDICTIONARYWDFLT
  2
AcDbDictionaryWithDefault
  3
ObjectDBX Classes
 90
        0
 91
        1
280
     0
281
     0
  0
CLASS
  1
DICTIONARYVAR
  2
AcDbDictionaryVar
  3
ObjectDBX Classes
 90
        0
 91
        6
280
     0
281
     0
  0
CLASS
  1
TABLESTYLE
  2
AcDbTableStyle
  3
ObjectDBX Classes
 90
     4095
 91
        1
280
     0
281
     0
  0
CLASS
  1
MATERIAL
  2
AcDbMaterial
  3
ObjectDBX Classes
 90
     1153
 91
        3
280
     0
281
     0
  0
CLASS
  1
VISUALSTYLE
  2
AcDbVisualStyle
  3
ObjectDBX Classes
 90
     4095
 91
        3
280
     0
281
     0
  0
CLASS
  1
SCALE
  2
AcDbScale
  3
ObjectDBX Classes
 90
     1153
 91
       26
280
     0
281
     0
  0
CLASS
  1
MLEADERSTYLE
  2
AcDbMLeaderStyle
  3
ACDB_MLEADERSTYLE_CLASS
 90
     4095
 91
        0
280
     0
281
     0
  0
CLASS
  1
CELLSTYLEMAP
  2
AcDbCellStyleMap
  3
ObjectDBX Classes
 90
     1152
 91
        1
280
     0
281
     0
  0
CLASS
  1
EXACXREFPANELOBJECT
  2
ExAcXREFPanelObject
  3
EXAC_ESW
 90
     1025
 91
        0
280
     1
281
     0
  0
CLASS
  1
NPOCOLLECTION
  2
AcDbImpNonPersistentObjectsCollection
  3
ObjectDBX Classes
 90
     1153
 91
        0
280
     0
281
     0
  0
CLASS
  1
LAYER_INDEX
  2
AcDbLayerIndex
  3
ObjectDBX Classes
 90
        0
 91
        0
280
     0
281
     0
  0
CLASS
  1
SPATIAL_INDEX
  2
AcDbSpatialIndex
  3
ObjectDBX Classes
 90
        0
 91
        0
280
     0
281
     0
  0
CLASS
  1
IDBUFFER
  2
AcDbIdBuffer
  3
ObjectDBX Classes
 90
        0
 91
        0
280
     0
281
     0
  0
CLASS
  1
AEC_VARS_DWG_SETUP
  2
AecDbVarsDwgSetup
  3
AecBase70|Product Desc: Autodesk Architectural Desktop 2007 |Company: Autodesk,Inc. |WEB Address: www.autodesk.com
 90
      129
 91
        0
280
     0
281
     0
  0
CLASS
  1
AECC_TREE_NODE
  2
AeccDbTreeNode
  3
AeccvBase100|Product Desc: AutoCAD Civil 3D |Company: Autodesk,Inc. |WEB Address: www.autodesk.com
 90
      129
 91
        0
280
     0
281
     0
  0
CLASS
  1
AECC_ROOT_SETTINGS_NODE
  2
AeccDbRootSettingsNode
  3
AeccvBase100|Product Desc: AutoCAD Civil 3D |Company: Autodesk,Inc. |WEB Address: www.autodesk.com
 90
      129
 91
        0
280
     0
281
     0
  0
CLASS
  1
AECC_LABEL_NODE
  2
AeccDbLabelNode
  3
AeccLand100|Product Desc: AutoCAD Civil 3D |Company: Autodesk,Inc. |WEB Address: www.autodesk.com
 90
      129
 91
        0
280
     0
281
     0
  0
CLASS
  1
AECC_LABEL_COLLECTOR_STYLE
  2
AeccDbLabelStyleCollector
  3
AeccLand100|Product Desc: AutoCAD Civil 3D |Company: Autodesk,Inc. |WEB Address: www.autodesk.com
 90
      129
 91
        0
280
     0
281
     0
  0
CLASS
  1
DMMAPMANAGER
  2
AcMapDMMapManager
  3
AcMapDisplayManagement
 90
     1024
 91
        0
280
     0
281
     0
  0
CLASS
  1
DMSTYLELIBRARY
  2
AcMapDMStyleLibrary
  3
AcMapDisplayManagement
 90
     1024
 91
        0
280
     0
281
     0
  0
CLASS
  1
DMSTYLECATEGORY
  2
AcMapDMStyleCategory
  3
AcMapDisplayManagement
 90
     1024
 91
        0
280
     0
281
     0
  0
CLASS
  1
DATATABLE
  2
AcDbDataTable
  3
ObjectDBX Classes
 90
        0
 91
        0
280
     0
281
     0
  0
CLASS
  1
AECC_POINT_STYLE
  2
AeccDbPointStyle
  3
AeccLand100|Product Desc: AutoCAD Civil 3D |Company: Autodesk,Inc. |WEB Address: www.autodesk.com
 90
      129
 91
        0
280
     0
281
     0
  0
CLASS
  1
AECC_TABLE_STYLE
  2
AeccDbScheduleTableStyle
  3
AeccLand100|Product Desc: AutoCAD Civil 3D |Company: Autodesk,Inc. |WEB Address: www.autodesk.com
 90
      129
 91
        0
280
     0
281
     0
  0
CLASS
  1
AECC_SURFACE_STYLE
  2
AeccDbSurfaceStyle
  3
AeccLand100|Product Desc: AutoCAD Civil 3D |Company: Autodesk,Inc. |WEB Address: www.autodesk.com
 90
      129
 91
        0
280
     0
281
     0
  0
CLASS
  1
AECC_LEGEND_TABLE_STYLE
  2
AeccDbLegendScheduleTableStyle
  3
AeccLand100|Product Desc: AutoCAD Civil 3D |Company: Autodesk,Inc. |WEB Address: www.autodesk.com
 90
      129
 91
        0
280
     0
281
     0
  0
CLASS
  1
AECC_LABEL_TEXT_STYLE
  2
AeccDbLabelStyleText
  3
AeccLand100|Product Desc: AutoCAD Civil 3D |Company: Autodesk,Inc. |WEB Address: www.autodesk.com
 90
      129
 91
        0
280
     0
281
     0
  0
CLASS
  1
AECC_PARCEL_STYLE
  2
AeccDbParcelStyle
  3
AeccLand100|Product Desc: AutoCAD Civil 3D |Company: Autodesk,Inc. |WEB Address: www.autodesk.com
 90
      129
 91
        0
280
     0
281
     0
  0
CLASS
  1
AECC_GRADING_STYLE
  2
AeccDbGradingStyle
  3
AeccLand100|Product Desc: AutoCAD Civil 3D |Company: Autodesk,Inc. |WEB Address: www.autodesk.com
 90
      129
 91
        0
280
     0
281
     0
  0
CLASS
  1
AECC_LABEL_VECTOR_ARROW_STYLE
  2
AeccDbLabelStyleVectorArrow
  3
AeccLand100|Product Desc: AutoCAD Civil 3D |Company: Autodesk,Inc. |WEB Address: www.autodesk.com
 90
      129
 91
        0
280
     0
281
     0
  0
CLASS
  1
AECC_GRADING_CRITERIA_SET
  2
AeccDbGradingCriteriaSet
  3
AeccLand100|Product Desc: AutoCAD Civil 3D |Company: Autodesk,Inc. |WEB Address: www.autodesk.com
 90
      129
 91
        0
280
     0
281
     0
  0
CLASS
  1
AECC_ROADWAYMARKER_STYLE
  2
AeccDbRoadwayMarkerStyle
  3
AeccLand100|Product Desc: AutoCAD Civil 3D |Company: Autodesk,Inc. |WEB Address: www.autodesk.com
 90
      129
 91
        0
280
     0
281
     0
  0
CLASS
  1
AECC_ALIGNMENT_STYLE
  2
AeccDbAlignmentStyle
  3
AeccLand100|Product Desc: AutoCAD Civil 3D |Company: Autodesk,Inc. |WEB Address: www.autodesk.com
 90
      129
 91
        0
280
     0
281
     0
  0
CLASS
  1
AECC_PROFILE_STYLE
  2
AeccDbVAlignmentStyle
  3
AeccLand100|Product Desc: AutoCAD Civil 3D |Company: Autodesk,Inc. |WEB Address: www.autodesk.com
 90
      129
 91
        0
280
     0
281
     0
  0
CLASS
  1
AECC_STATION_FORMAT_STYLE
  2
AeccDbStationFormatStyle
  3
AeccLand100|Product Desc: AutoCAD Civil 3D |Company: Autodesk,Inc. |WEB Address: www.autodesk.com
 90
      129
 91
        0
280
     0
281
     0
  0
CLASS
  1
AECC_PROFILE_VIEW_STYLE
  2
AeccDbGraphStyleProfile
  3
AeccLand100|Product Desc: AutoCAD Civil 3D |Company: Autodesk,Inc. |WEB Address: www.autodesk.com
 90
      129
 91
        0
280
     0
281
     0
  0
CLASS
  1
AECC_SETTINGS_NODE
  2
AeccDbSettingsNode
  3
AeccvBase100|Product Desc: AutoCAD Civil 3D |Company: Autodesk,Inc. |WEB Address: www.autodesk.com
 90
      129
 91
        0
280
     0
281
     0
  0
CLASS
  1
AECC_SAMPLE_LINE_STYLE
  2
AeccDbSampleLineStyle
  3
AeccLand100|Product Desc: AutoCAD Civil 3D |Company: Autodesk,Inc. |WEB Address: www.autodesk.com
 90
      129
 91
        0
280
     0
281
     0
  0
CLASS
  1
AECC_SECTION_STYLE
  2
AeccDbSectionStyle
  3
AeccLand100|Product Desc: AutoCAD Civil 3D |Company: Autodesk,Inc. |WEB Address: www.autodesk.com
 90
      129
 91
        0
280
     0
281
     0
  0
CLASS
  1
AECC_SECTION_VIEW_STYLE
  2
AeccDbGraphStyleCrossSection
  3
AeccLand100|Product Desc: AutoCAD Civil 3D |Company: Autodesk,Inc. |WEB Address: www.autodesk.com
 90
      129
 91
        0
280
     0
281
     0
  0
CLASS
  1
AECC_SAMPLE_LINE_GROUP_STYLE
  2
AeccDbSampleLineGroupStyle
  3
AeccLand100|Product Desc: AutoCAD Civil 3D |Company: Autodesk,Inc. |WEB Address: www.autodesk.com
 90
      129
 91
        0
280
     0
281
     0
  0
CLASS
  1
AECC_SHEET_STYLE
  2
AeccDbSheetStyle
  3
AeccLand100|Product Desc: AutoCAD Civil 3D |Company: Autodesk,Inc. |WEB Address: www.autodesk.com
 90
      129
 91
        0
280
     0
281
     0
  0
CLASS
  1
AECC_MASS_HAUL_LINE_STYLE
  2
AeccDbMassHaulLineStyle
  3
AeccLand100|Product Desc: AutoCAD Civil 3D |Company: Autodesk,Inc. |WEB Address: www.autodesk.com
 90
     3071
 91
        0
280
     0
281
     0
  0
CLASS
  1
AECC_MASS_HAUL_VIEW_STYLE
  2
AeccDbGraphStyleMassHaulView
  3
AeccLand100|Product Desc: AutoCAD Civil 3D |Company: Autodesk,Inc. |WEB Address: www.autodesk.com
 90
      129
 91
        0
280
     0
281
     0
  0
CLASS
  1
AECC_INTERFERENCE_STYLE
  2
AeccDbInterferenceStyle
  3
AeccNetwork100|Product Desc: AutoCAD Civil 3D |Company: Autodesk,Inc. |WEB Address: www.autodesk.com
 90
      129
 91
        0
280
     0
281
     0
  0
CLASS
  1
AECC_PIPE_STYLE
  2
AeccDbPipeStyle
  3
AeccNetwork100|Product Desc: AutoCAD Civil 3D |Company: Autodesk,Inc. |WEB Address: www.autodesk.com
 90
      129
 91
        0
280
     0
281
     0
  0
CLASS
  1
AECC_PIPE_RULES
  2
AeccDbPipeRules
  3
AeccNetwork100|Product Desc: AutoCAD Civil 3D |Company: Autodesk,Inc. |WEB Address: www.autodesk.com
 90
      129
 91
        0
280
     0
281
     0
  0
CLASS
  1
AECC_NETWORK_RULE
  2
AeccDbNetworkRule
  3
AeccNetwork100|Product Desc: AutoCAD Civil 3D |Company: Autodesk,Inc. |WEB Address: www.autodesk.com
 90
      129
 91
        0
280
     0
281
     0
  0
CLASS
  1
AECC_STUCTURE_STYLE
  2
AeccDbStructureStyle
  3
AeccNetwork100|Product Desc: AutoCAD Civil 3D |Company: Autodesk,Inc. |WEB Address: www.autodesk.com
 90
      129
 91
        0
280
     0
281
     0
  0
CLASS
  1
AECC_STRUCTURE_RULES
  2
AeccDbStructureRules
  3
AeccNetwork100|Product Desc: AutoCAD Civil 3D |Company: Autodesk,Inc. |WEB Address: www.autodesk.com
 90
      129
 91
        0
280
     0
281
     0
  0
CLASS
  1
AECC_CORRIDOR_STYLE
  2
AeccDbCorridorStyle
  3
AeccRoadway100|Product Desc: AutoCAD Civil 3D |Company: Autodesk,Inc. |WEB Address: www.autodesk.com
 90
      129
 91
        0
280
     0
281
     0
  0
CLASS
  1
AECC_ASSEMBLY_STYLE
  2
AeccDbAssemblyStyle
  3
AeccRoadway100|Product Desc: AutoCAD Civil 3D |Company: Autodesk,Inc. |WEB Address: www.autodesk.com
 90
      129
 91
        0
280
     0
281
     0
  0
CLASS
  1
AECC_QUANTITY_TAKEOFF_CRITERIA
  2
AeccDbQuantityTakeoffCriteria
  3
AeccRoadway100|Product Desc: AutoCAD Civil 3D |Company: Autodesk,Inc. |WEB Address: www.autodesk.com
 90
      129
 91
        0
280
     0
281
     0
  0
CLASS
  1
AECC_SVNETWORK_STYLE
  2
AeccDbSvNetworkStyle
  3
AeccSurvey100|Product Desc: AutoCAD Civil 3D |Company: Autodesk,Inc. |WEB Address: www.autodesk.com
 90
      129
 91
        0
280
     0
281
     0
  0
CLASS
  1
AECC_SVFIGURE_STYLE
  2
AeccDbSvFigureStyle
  3
AeccSurvey100|Product Desc: AutoCAD Civil 3D |Company: Autodesk,Inc. |WEB Address: www.autodesk.com
 90
      129
 91
        0
280
     0
281
     0
  0
CLASS
  1
AECC_VIEW_FRAME_STYLE
  2
AeccDbViewFrameStyle
  3
AeccPlanProd100|Product Desc: AutoCAD Civil 3D |Company: Autodesk,Inc. |WEB Address: www.autodesk.com
 90
      129
 91
        0
280
     0
281
     0
  0
CLASS
  1
AECC_MATCHLINE_STYLE
  2
AeccDbMatchLineStyle
  3
AeccPlanProd100|Product Desc: AutoCAD Civil 3D |Company: Autodesk,Inc. |WEB Address: www.autodesk.com
 90
      129
 91
        0
280
     0
281
     0
  0
CLASS
  1
AECC_ALIGNMENT_DESIGN_CHECK_SET
  2
AeccDbAlignmentDesignCheckSet
  3
AeccLand100|Product Desc: AutoCAD Civil 3D |Company: Autodesk,Inc. |WEB Address: www.autodesk.com
 90
      129
 91
        0
280
     0
281
     0
  0
CLASS
  1
AECC_ALIGNMENT_LABEL_SET
  2
AeccDbAlignStnLabelsDlgTemplate
  3
AeccLand100|Product Desc: AutoCAD Civil 3D |Company: Autodesk,Inc. |WEB Address: www.autodesk.com
 90
      129
 91
        0
280
     0
281
     0
  0
CLASS
  1
AECC_PROFILE_DESIGN_CHECK_SET
  2
AeccDbVAlignmentDesignCheckSet
  3
AeccLand100|Product Desc: AutoCAD Civil 3D |Company: Autodesk,Inc. |WEB Address: www.autodesk.com
 90
      129
 91
        0
280
     0
281
     0
  0
CLASS
  1
AECC_PROFILE_LABEL_SET
  2
AeccDbVAlignStnLabelsDlgTemplate
  3
AeccLand100|Product Desc: AutoCAD Civil 3D |Company: Autodesk,Inc. |WEB Address: www.autodesk.com
 90
      129
 91
        0
280
     0
281
     0
  0
CLASS
  1
AECC_SECTION_LABEL_SET
  2
AeccDbSectionLabelsDlgTemplate
  3
AeccLand100|Product Desc: AutoCAD Civil 3D |Company: Autodesk,Inc. |WEB Address: www.autodesk.com
 90
     3071
 91
        0
280
     0
281
     0
  0
CLASS
  1
AEC_NOTIFICATION_TRACKER
  2
AecDbNotificationTracker
  3
AecBase70|Product Desc: Autodesk Architectural Desktop 2007 |Company: Autodesk,Inc. |WEB Address: www.autodesk.com
 90
      129
 91
        0
280
     0
281
     0
  0
CLASS
  1
AEC_DISP_REP_2D_SECTION
  2
AecDbDispRep2dSection
  3
AecBase70|Product Desc: Autodesk Architectural Desktop 2007 |Company: Autodesk,Inc. |WEB Address: www.autodesk.com
 90
      129
 91
        0
280
     0
281
     0
  0
CLASS
  1
AEC_DISP_PROPS_2D_SECTION
  2
AecDbDispProps2dSection
  3
AecBase70|Product Desc: Autodesk Architectural Desktop 2007 |Company: Autodesk,Inc. |WEB Address: www.autodesk.com
 90
      129
 91
        0
280
     0
281
     0
  0
CLASS
  1
AEC_DISP_REP_ANCHOR
  2
AecDbDispRepAnchor
  3
AecBase70|Product Desc: Autodesk Architectural Desktop 2007 |Company: Autodesk,Inc. |WEB Address: www.autodesk.com
 90
      129
 91
        0
280
     0
281
     0
  0
CLASS
  1
AEC_DISP_REP_CLIP_VOLUME_MODEL
  2
AecDbDispRepClipVolModel
  3
AecBase70|Product Desc: Autodesk Architectural Desktop 2007 |Company: Autodesk,Inc. |WEB Address: www.autodesk.com
 90
      129
 91
        0
280
     0
281
     0
  0
CLASS
  1
AEC_DISP_PROPS_CLIP_VOLUME
  2
AecDbDispPropsClipVol
  3
AecBase70|Product Desc: Autodesk Architectural Desktop 2007 |Company: Autodesk,Inc. |WEB Address: www.autodesk.com
 90
      129
 91
        0
280
     0
281
     0
  0
CLASS
  1
AEC_DISP_REP_CLIP_VOLUME_PLAN
  2
AecDbDispRepClipVolPlan
  3
AecBase70|Product Desc: Autodesk Architectural Desktop 2007 |Company: Autodesk,Inc. |WEB Address: www.autodesk.com
 90
      129
 91
        0
280
     0
281
     0
  0
CLASS
  1
AEC_DISP_REP_CLIP_VOLUME_RESULT
  2
AecDbDispRepClipVolResult
  3
AecBase70|Product Desc: Autodesk Architectural Desktop 2007 |Company: Autodesk,Inc. |WEB Address: www.autodesk.com
 90
      129
 91
        0
280
     0
281
     0
  0
CLASS
  1
AEC_DISP_REP_CLIP_VOLUME_RESULT_SUBDIV
  2
AecDbDispRepClipVolResSubDiv
  3
AecBase70|Product Desc: Autodesk Architectural Desktop 2007 |Company: Autodesk,Inc. |WEB Address: www.autodesk.com
 90
      129
 91
        0
280
     0
281
     0
  0
CLASS
  1
AEC_DISP_PROPS_CLIP_VOLUME_RESULT
  2
AecDbDispPropsClipVolResSubDiv
  3
AecBase70|Product Desc: Autodesk Architectural Desktop 2007 |Company: Autodesk,Inc. |WEB Address: www.autodesk.com
 90
      129
 91
        0
280
     0
281
     0
  0
CLASS
  1
AEC_DISP_REP_DISPLAYTHEME
  2
AecDbDispRepDisplayTheme
  3
AecBase70|Product Desc: Autodesk Architectural Desktop 2007 |Company: Autodesk,Inc. |WEB Address: www.autodesk.com
 90
      129
 91
        0
280
     0
281
     0
  0
CLASS
  1
AEC_DISP_PROPS_DISPLAYTHEME
  2
AecDbDispPropsDisplayTheme
  3
AecBase70|Product Desc: Autodesk Architectural Desktop 2007 |Company: Autodesk,Inc. |WEB Address: www.autodesk.com
 90
      129
 91
        0
280
     0
281
     0
  0
CLASS
  1
AEC_DISP_REP_EDITINPLACEPROFILE
  2
AecDbDispRepEditInPlaceProfile
  3
AecBase70|Product Desc: Autodesk Architectural Desktop 2007 |Company: Autodesk,Inc. |WEB Address: www.autodesk.com
 90
      129
 91
        0
280
     0
281
     0
  0
CLASS
  1
AEC_DISP_PROPS_EDITINPLACEPROFILE_MODEL
  2
AecDbDispPropsEditInPlaceProfile
  3
AecBase70|Product Desc: Autodesk Architectural Desktop 2007 |Company: Autodesk,Inc. |WEB Address: www.autodesk.com
 90
      129
 91
        0
280
     0
281
     0
  0
CLASS
  1
AEC_DISP_REP_ENT_REF
  2
AecDbDispRepEntRef
  3
AecBase70|Product Desc: Autodesk Architectural Desktop 2007 |Company: Autodesk,Inc. |WEB Address: www.autodesk.com
 90
      129
 91
        0
280
     0
281
     0
  0
CLASS
  1
AEC_DISP_PROPS_ENT_REF
  2
AecDbDispPropsEntRef
  3
AecBase70|Product Desc: Autodesk Architectural Desktop 2007 |Company: Autodesk,Inc. |WEB Address: www.autodesk.com
 90
      129
 91
        0
280
     0
281
     0
  0
CLASS
  1
AEC_DISP_REP_LAYOUT_CURVE
  2
AecDbDispRepLayoutCurve
  3
AecBase70|Product Desc: Autodesk Architectural Desktop 2007 |Company: Autodesk,Inc. |WEB Address: www.autodesk.com
 90
      129
 91
        0
280
     0
281
     0
  0
CLASS
  1
AEC_DISP_PROPS_LAYOUT_CURVE
  2
AecDbDispPropsLayoutCurve
  3
AecBase70|Product Desc: Autodesk Architectural Desktop 2007 |Company: Autodesk,Inc. |WEB Address: www.autodesk.com
 90
      129
 91
        0
280
     0
281
     0
  0
CLASS
  1
AEC_DISP_REP_LAYOUT_GRID2D
  2
AecDbDispRepLayoutGrid2d
  3
AecBase70|Product Desc: Autodesk Architectural Desktop 2007 |Company: Autodesk,Inc. |WEB Address: www.autodesk.com
 90
      129
 91
        0
280
     0
281
     0
  0
CLASS
  1
AEC_DISP_PROPS_LAYOUT_GRID2D
  2
AecDbDispPropsLayoutGrid2d
  3
AecBase70|Product Desc: Autodesk Architectural Desktop 2007 |Company: Autodesk,Inc. |WEB Address: www.autodesk.com
 90
      129
 91
        0
280
     0
281
     0
  0
CLASS
  1
AEC_DISP_REP_LAYOUT_GRID3D
  2
AecDbDispRepLayoutGrid3d
  3
AecBase70|Product Desc: Autodesk Architectural Desktop 2007 |Company: Autodesk,Inc. |WEB Address: www.autodesk.com
 90
      129
 91
        0
280
     0
281
     0
  0
CLASS
  1
AEC_DISP_PROPS_LAYOUT_GRID3D
  2
AecDbDispPropsLayoutGrid3d
  3
AecBase70|Product Desc: Autodesk Architectural Desktop 2007 |Company: Autodesk,Inc. |WEB Address: www.autodesk.com
 90
      129
 91
        0
280
     0
281
     0
  0
CLASS
  1
AEC_DISP_REP_MASKBLOCK_REF
  2
AecDbDispRepMaskBlockRef
  3
AecBase70|Product Desc: Autodesk Architectural Desktop 2007 |Company: Autodesk,Inc. |WEB Address: www.autodesk.com
 90
      129
 91
        0
280
     0
281
     0
  0
CLASS
  1
AEC_DISP_PROPS_MASKBLOCK
  2
AecDbDispPropsMaskBlock
  3
AecBase70|Product Desc: Autodesk Architectural Desktop 2007 |Company: Autodesk,Inc. |WEB Address: www.autodesk.com
 90
      129
 91
        0
280
     0
281
     0
  0
CLASS
  1
AEC_DISP_REP_MATERIAL
  2
AecDbDispRepMaterial
  3
AecBase70|Product Desc: Autodesk Architectural Desktop 2007 |Company: Autodesk,Inc. |WEB Address: www.autodesk.com
 90
      129
 91
        0
280
     0
281
     0
  0
CLASS
  1
AEC_DISP_PROPS_MATERIAL
  2
AecDbDispPropsMaterial
  3
AecBase70|Product Desc: Autodesk Architectural Desktop 2007 |Company: Autodesk,Inc. |WEB Address: www.autodesk.com
 90
      129
 91
        0
280
     0
281
     0
  0
CLASS
  1
AEC_DISP_REP_MVBLOCK_REF
  2
AecDbDispRepMvBlockRef
  3
AecBase70|Product Desc: Autodesk Architectural Desktop 2007 |Company: Autodesk,Inc. |WEB Address: www.autodesk.com
 90
      129
 91
        0
280
     0
281
     0
  0
CLASS
  1
AEC_DISP_REP_MVBLOCK_REF_MODEL
  2
AecDbDispRepMvBlockRefModel
  3
AecBase70|Product Desc: Autodesk Architectural Desktop 2007 |Company: Autodesk,Inc. |WEB Address: www.autodesk.com
 90
      129
 91
        0
280
     0
281
     0
  0
CLASS
  1
AEC_DISP_REP_SLICE
  2
AecDbDispRepSlice
  3
AecBase70|Product Desc: Autodesk Architectural Desktop 2007 |Company: Autodesk,Inc. |WEB Address: www.autodesk.com
 90
      129
 91
        0
280
     0
281
     0
  0
CLASS
  1
AEC_DISP_PROPS_SLICE
  2
AecDbDispPropsSlice
  3
AecBase70|Product Desc: Autodesk Architectural Desktop 2007 |Company: Autodesk,Inc. |WEB Address: www.autodesk.com
 90
      129
 91
        0
280
     0
281
     0
  0
CLASS
  1
AEC_DISP_REP_ANCHOR_ENT_TO_NODE
  2
AecDbDispRepAnchorEntToNode
  3
AecBase70|Product Desc: Autodesk Architectural Desktop 2007 |Company: Autodesk,Inc. |WEB Address: www.autodesk.com
 90
      129
 91
        0
280
     0
281
     0
  0
CLASS
  1
AEC_DISP_PROPS_ENT
  2
AecDbDispPropsEnt
  3
AecBase70|Product Desc: Autodesk Architectural Desktop 2007 |Company: Autodesk,Inc. |WEB Address: www.autodesk.com
 90
      129
 91
        0
280
     0
281
     0
  0
CLASS
  1
AEC_DISP_REP_MASS_ELEM_MODEL
  2
AecDbDispRepMassElemModel
  3
AecBaseEx70|Product Desc: Autodesk Architectural Desktop 2007 |Company: Autodesk,Inc. |WEB Address: www.autodesk.com
 90
      129
 91
        0
280
     0
281
     0
  0
CLASS
  1
AEC_DISP_PROPS_MASS_ELEM_MODEL
  2
AecDbDispPropsMassElem
  3
AecBaseEx70|Product Desc: Autodesk Architectural Desktop 2007 |Company: Autodesk,Inc. |WEB Address: www.autodesk.com
 90
      129
 91
        0
280
     0
281
     0
  0
CLASS
  1
AEC_DISP_REP_MASS_ELEM_SCHEM
  2
AecDbDispRepMassElemSchem
  3
AecBaseEx70|Product Desc: Autodesk Architectural Desktop 2007 |Company: Autodesk,Inc. |WEB Address: www.autodesk.com
 90
      129
 91
        0
280
     0
281
     0
  0
CLASS
  1
AEC_DISP_REP_MASS_GROUP_MODEL
  2
AecDbDispRepMassGroupModel
  3
AecBaseEx70|Product Desc: Autodesk Architectural Desktop 2007 |Company: Autodesk,Inc. |WEB Address: www.autodesk.com
 90
      129
 91
        0
280
     0
281
     0
  0
CLASS
  1
AEC_DISP_PROPS_MASS_GROUP
  2
AecDbDispPropsMassGroup
  3
AecBaseEx70|Product Desc: Autodesk Architectural Desktop 2007 |Company: Autodesk,Inc. |WEB Address: www.autodesk.com
 90
      129
 91
        0
280
     0
281
     0
  0
CLASS
  1
AEC_DISP_REP_MASS_GROUP_PLAN
  2
AecDbDispRepMassGroupPlan
  3
AecBaseEx70|Product Desc: Autodesk Architectural Desktop 2007 |Company: Autodesk,Inc. |WEB Address: www.autodesk.com
 90
      129
 91
        0
280
     0
281
     0
  0
CLASS
  1
AEC_DISP_REP_POLYGON_MODEL
  2
AecDbDispRepPolygonModel
  3
AecBase70|Product Desc: Autodesk Architectural Desktop 2007 |Company: Autodesk,Inc. |WEB Address: www.autodesk.com
 90
      129
 91
        0
280
     0
281
     0
  0
CLASS
  1
AEC_DISP_PROPS_POLYGON_MODEL
  2
AecDbDispPropsPolygonModel
  3
AecBase70|Product Desc: Autodesk Architectural Desktop 2007 |Company: Autodesk,Inc. |WEB Address: www.autodesk.com
 90
      129
 91
        0
280
     0
281
     0
  0
CLASS
  1
AEC_DISP_REP_POLYGON_TRUECOLOUR
  2
AecDbDispRepPolygonTrueColour
  3
AecBase70|Product Desc: Autodesk Architectural Desktop 2007 |Company: Autodesk,Inc. |WEB Address: www.autodesk.com
 90
      129
 91
        0
280
     0
281
     0
  0
CLASS
  1
AEC_DISP_PROPS_POLYGON_TRUECOLOUR
  2
AecDbDispPropsPolygonTrueColour
  3
AecBase70|Product Desc: Autodesk Architectural Desktop 2007 |Company: Autodesk,Inc. |WEB Address: www.autodesk.com
 90
      129
 91
        0
280
     0
281
     0
  0
CLASS
  1
AEC_DISP_REP_ANCHOR_TAG_TO_ENT
  2
AecDbDispRepAnchorTagToEnt
  3
AecBase70|Product Desc: Autodesk Architectural Desktop 2007 |Company: Autodesk,Inc. |WEB Address: www.autodesk.com
 90
      129
 91
        0
280
     0
281
     0
  0
CLASS
  1
AEC_DISP_REP_ANCHOR_EXT_TAG_TO_ENT
  2
AecDbDispRepAnchorExtendedTagToEnt
  3
AecBase70|Product Desc: Autodesk Architectural Desktop 2007 |Company: Autodesk,Inc. |WEB Address: www.autodesk.com
 90
      129
 91
        0
280
     0
281
     0
  0
CLASS
  1
AEC_DISP_REP_SCHEDULE_TABLE
  2
AecDbDispRepScheduleTable
  3
AecSchedule70|Product Desc: Autodesk Architectural Desktop 2007 |Company: Autodesk,Inc. |WEB Address: www.autodesk.com
 90
      129
 91
        0
280
     0
281
     0
  0
CLASS
  1
AEC_DISP_PROPS_SCHEDULE_TABLE
  2
AecDbDispPropsScheduleTable
  3
AecSchedule70|Product Desc: Autodesk Architectural Desktop 2007 |Company: Autodesk,Inc. |WEB Address: www.autodesk.com
 90
      129
 91
        0
280
     0
281
     0
  0
CLASS
  1
AEC_DISP_REP_BDG_ELEVLINE_MODEL
  2
AecDbDispRepBdgElevLineModel
  3
AecArchBase70|Product Desc: Autodesk Architectural Desktop 2007 |Company: Autodesk,Inc. |WEB Address: www.autodesk.com
 90
      129
 91
        0
280
     0
281
     0
  0
CLASS
  1
AEC_DISP_REP_BDG_SECTIONLINE_PLAN
  2
AecDbDispRepBdgElevLinePlan
  3
AecArchBase70|Product Desc: Autodesk Architectural Desktop 2007 |Company: Autodesk,Inc. |WEB Address: www.autodesk.com
 90
      129
 91
        0
280
     0
281
     0
  0
CLASS
  1
AEC_DISP_REP_BDG_ELEVLINE_RCP
  2
AecDbDispRepBdgElevLineRcp
  3
AecArchBase70|Product Desc: Autodesk Architectural Desktop 2007 |Company: Autodesk,Inc. |WEB Address: www.autodesk.com
 90
      129
 91
        0
280
     0
281
     0
  0
CLASS
  1
AEC_DISP_REP_BDG_SECTIONLINE_MODEL
  2
AecDbDispRepBdgSectionLineModel
  3
AecArchBase70|Product Desc: Autodesk Architectural Desktop 2007 |Company: Autodesk,Inc. |WEB Address: www.autodesk.com
 90
      129
 91
        0
280
     0
281
     0
  0
CLASS
  1
AEC_DISP_REP_BDG_SECTIONLINE_PLAN
  2
AecDbDispRepBdgSectionLinePlan
  3
AecArchBase70|Product Desc: Autodesk Architectural Desktop 2007 |Company: Autodesk,Inc. |WEB Address: www.autodesk.com
 90
      129
 91
        0
280
     0
281
     0
  0
CLASS
  1
AEC_DISP_REP_BDG_SECTIONLINE_RCP
  2
AecDbDispRepBdgSectionLineRcp
  3
AecArchBase70|Product Desc: Autodesk Architectural Desktop 2007 |Company: Autodesk,Inc. |WEB Address: www.autodesk.com
 90
      129
 91
        0
280
     0
281
     0
  0
CLASS
  1
AEC_DISP_REP_BDG_SECTION_MODEL
  2
AecDbDispRepBdgSectionModel
  3
AecArchBase70|Product Desc: Autodesk Architectural Desktop 2007 |Company: Autodesk,Inc. |WEB Address: www.autodesk.com
 90
      129
 91
        0
280
     0
281
     0
  0
CLASS
  1
AEC_DISP_REP_BDG_SECTION_SUBDIV
  2
AecDbDispRepBdgSectionSubDiv
  3
AecArchBase70|Product Desc: Autodesk Architectural Desktop 2007 |Company: Autodesk,Inc. |WEB Address: www.autodesk.com
 90
      129
 91
        0
280
     0
281
     0
  0
CLASS
  1
AEC_DISP_REP_CEILING_GRID
  2
AecDbDispRepCeilingGrid
  3
AecArchBase70|Product Desc: Autodesk Architectural Desktop 2007 |Company: Autodesk,Inc. |WEB Address: www.autodesk.com
 90
      893
 91
        0
280
     0
281
     0
  0
CLASS
  1
AEC_DISP_REP_CEILING_GRID_MODEL
  2
AecDbDispRepCeilingGridModel
  3
AecArchBase70|Product Desc: Autodesk Architectural Desktop 2007 |Company: Autodesk,Inc. |WEB Address: www.autodesk.com
 90
      129
 91
        0
280
     0
281
     0
  0
CLASS
  1
AEC_DISP_REP_CEILING_GRID_RCP
  2
AecDbDispRepCeilingGridRcp
  3
AecArchBase70|Product Desc: Autodesk Architectural Desktop 2007 |Company: Autodesk,Inc. |WEB Address: www.autodesk.com
 90
      129
 91
        0
280
     0
281
     0
  0
CLASS
  1
AEC_DISP_REP_CURTAIN_WALL_LAYOUT_MODEL
  2
AecDbDispRepCurtainWallLayoutModel
  3
AecArchBase70|Product Desc: Autodesk Architectural Desktop 2007 |Company: Autodesk,Inc. |WEB Address: www.autodesk.com
 90
      129
 91
        0
280
     0
281
     0
  0
CLASS
  1
AEC_DISP_PROPS_GRID_ASSEMBLY_MODEL
  2
AecDbDispPropsGridAssemblyModel
  3
AecArchBase70|Product Desc: Autodesk Architectural Desktop 2007 |Company: Autodesk,Inc. |WEB Address: www.autodesk.com
 90
      129
 91
        0
280
     0
281
     0
  0
CLASS
  1
AEC_DISP_REP_CURTAIN_WALL_LAYOUT_PLAN
  2
AecDbDispRepCurtainWallLayoutPlan
  3
AecArchBase70|Product Desc: Autodesk Architectural Desktop 2007 |Company: Autodesk,Inc. |WEB Address: www.autodesk.com
 90
      129
 91
        0
280
     0
281
     0
  0
CLASS
  1
AEC_DISP_PROPS_GRID_ASSEMBLY_PLAN
  2
AecDbDispPropsGridAssemblyPlan
  3
AecArchBase70|Product Desc: Autodesk Architectural Desktop 2007 |Company: Autodesk,Inc. |WEB Address: www.autodesk.com
 90
      129
 91
        0
280
     0
281
     0
  0
CLASS
  1
AEC_DISP_REP_CURTAIN_WALL_UNIT_MODEL
  2
AecDbDispRepCurtainWallUnitModel
  3
AecArchBase70|Product Desc: Autodesk Architectural Desktop 2007 |Company: Autodesk,Inc. |WEB Address: www.autodesk.com
 90
      129
 91
        0
280
     0
281
     0
  0
CLASS
  1
AEC_DISP_REP_CURTAIN_WALL_UNIT_PLAN
  2
AecDbDispRepCurtainWallUnitPlan
  3
AecArchBase70|Product Desc: Autodesk Architectural Desktop 2007 |Company: Autodesk,Inc. |WEB Address: www.autodesk.com
 90
      129
 91
        0
280
     0
281
     0
  0
CLASS
  1
AEC_DISP_REP_DOOR_MODEL
  2
AecDbDispRepDoorModel
  3
AecArchBase70|Product Desc: Autodesk Architectural Desktop 2007 |Company: Autodesk,Inc. |WEB Address: www.autodesk.com
 90
      129
 91
        0
280
     0
281
     0
  0
CLASS
  1
AEC_DISP_PROPS_DOOR
  2
AecDbDispPropsDoor
  3
AecArchBase70|Product Desc: Autodesk Architectural Desktop 2007 |Company: Autodesk,Inc. |WEB Address: www.autodesk.com
 90
      129
 91
        0
280
     0
281
     0
  0
CLASS
  1
AEC_DISP_REP_DOOR_ELEV
  2
AecDbDispRepDoorElev
  3
AecArchBase70|Product Desc: Autodesk Architectural Desktop 2007 |Company: Autodesk,Inc. |WEB Address: www.autodesk.com
 90
      129
 91
        0
280
     0
281
     0
  0
CLASS
  1
AEC_DISP_REP_DOOR_PLAN
  2
AecDbDispRepDoorPlan
  3
AecArchBase70|Product Desc: Autodesk Architectural Desktop 2007 |Company: Autodesk,Inc. |WEB Address: www.autodesk.com
 90
      129
 91
        0
280
     0
281
     0
  0
CLASS
  1
AEC_DISP_REP_DOOR_NOMINAL
  2
AecDbDispRepDoorNominal
  3
AecArchBase70|Product Desc: Autodesk Architectural Desktop 2007 |Company: Autodesk,Inc. |WEB Address: www.autodesk.com
 90
      129
 91
        0
280
     0
281
     0
  0
CLASS
  1
AEC_DISP_PROPS_DOOR_NOMINAL
  2
AecDbDispPropsDoorNominal
  3
AecArchBase70|Product Desc: Autodesk Architectural Desktop 2007 |Company: Autodesk,Inc. |WEB Address: www.autodesk.com
 90
      129
 91
        0
280
     0
281
     0
  0
CLASS
  1
AEC_DISP_REP_DOOR_RCP
  2
AecDbDispRepDoorRcp
  3
AecArchBase70|Product Desc: Autodesk Architectural Desktop 2007 |Company: Autodesk,Inc. |WEB Address: www.autodesk.com
 90
      129
 91
        0
280
     0
281
     0
  0
CLASS
  1
AEC_DISP_REP_DOOR_THRESHOLD_PLAN
  2
AecDbDispRepDoorThresholdPlan
  3
AecArchBase70|Product Desc: Autodesk Architectural Desktop 2007 |Company: Autodesk,Inc. |WEB Address: www.autodesk.com
 90
      129
 91
        0
280
     0
281
     0
  0
CLASS
  1
AEC_DISP_PROPS_DOOR_THRESHOLD_PLAN
  2
AecDbDispPropsDoorThresholdPlan
  3
AecArchBase70|Product Desc: Autodesk Architectural Desktop 2007 |Company: Autodesk,Inc. |WEB Address: www.autodesk.com
 90
      129
 91
        0
280
     0
281
     0
  0
CLASS
  1
AEC_DISP_REP_MASKBLOCK_REF_RCP
  2
AecDbDispRepMaskBlockRefRcp
  3
AecArchBase70|Product Desc: Autodesk Architectural Desktop 2007 |Company: Autodesk,Inc. |WEB Address: www.autodesk.com
 90
      129
 91
        0
280
     0
281
     0
  0
CLASS
  1
AEC_DISP_REP_MASS_ELEM_RCP
  2
AecDbDispRepMassElemRcp
  3
AecArchBase70|Product Desc: Autodesk Architectural Desktop 2007 |Company: Autodesk,Inc. |WEB Address: www.autodesk.com
 90
      129
 91
        0
280
     0
281
     0
  0
CLASS
  1
AEC_DISP_REP_MASS_GROUP_RCP
  2
AecDbDispRepMassGroupRcp
  3
AecArchBase70|Product Desc: Autodesk Architectural Desktop 2007 |Company: Autodesk,Inc. |WEB Address: www.autodesk.com
 90
      129
 91
        0
280
     0
281
     0
  0
CLASS
  1
AEC_DISP_REP_MVBLOCK_REF_RCP
  2
AecDbDispRepMvBlockRefRcp
  3
AecArchBase70|Product Desc: Autodesk Architectural Desktop 2007 |Company: Autodesk,Inc. |WEB Address: www.autodesk.com
 90
      129
 91
        0
280
     0
281
     0
  0
CLASS
  1
AEC_DISP_REP_OPENING
  2
AecDbDispRepOpening
  3
AecArchBase70|Product Desc: Autodesk Architectural Desktop 2007 |Company: Autodesk,Inc. |WEB Address: www.autodesk.com
 90
      129
 91
        0
280
     0
281
     0
  0
CLASS
  1
AEC_DISP_PROPS_OPENING
  2
AecDbDispPropsOpening
  3
AecArchBase70|Product Desc: Autodesk Architectural Desktop 2007 |Company: Autodesk,Inc. |WEB Address: www.autodesk.com
 90
      129
 91
        0
280
     0
281
     0
  0
CLASS
  1
AEC_DISP_REP_OPENING_MODEL
  2
AecDbDispRepOpeningModel
  3
AecArchBase70|Product Desc: Autodesk Architectural Desktop 2007 |Company: Autodesk,Inc. |WEB Address: www.autodesk.com
 90
      129
 91
        0
280
     0
281
     0
  0
CLASS
  1
AEC_DISP_REP_RAILING_MODEL
  2
AecDbDispRepRailingModel
  3
AecArchBase70|Product Desc: Autodesk Architectural Desktop 2007 |Company: Autodesk,Inc. |WEB Address: www.autodesk.com
 90
      129
 91
        0
280
     0
281
     0
  0
CLASS
  1
AEC_DISP_PROPS_RAILING_MODEL
  2
AecDbDispPropsRailingModel
  3
AecArchBase70|Product Desc: Autodesk Architectural Desktop 2007 |Company: Autodesk,Inc. |WEB Address: www.autodesk.com
 90
      129
 91
        0
280
     0
281
     0
  0
CLASS
  1
AEC_DISP_REP_RAILING_PLAN
  2
AecDbDispRepRailingPlan
  3
AecArchBase70|Product Desc: Autodesk Architectural Desktop 2007 |Company: Autodesk,Inc. |WEB Address: www.autodesk.com
 90
      129
 91
        0
280
     0
281
     0
  0
CLASS
  1
AEC_DISP_PROPS_RAILING_PLAN
  2
AecDbDispPropsRailingPlan
  3
AecArchBase70|Product Desc: Autodesk Architectural Desktop 2007 |Company: Autodesk,Inc. |WEB Address: www.autodesk.com
 90
      129
 91
        0
280
     0
281
     0
  0
CLASS
  1
AEC_DISP_REP_ROOF_MODEL
  2
AecDbDispRepRoofModel
  3
AecArchBase70|Product Desc: Autodesk Architectural Desktop 2007 |Company: Autodesk,Inc. |WEB Address: www.autodesk.com
 90
      129
 91
        0
280
     0
281
     0
  0
CLASS
  1
AEC_DISP_PROPS_ROOF
  2
AecDbDispPropsRoof
  3
AecArchBase70|Product Desc: Autodesk Architectural Desktop 2007 |Company: Autodesk,Inc. |WEB Address: www.autodesk.com
 90
      129
 91
        0
280
     0
281
     0
  0
CLASS
  1
AEC_DISP_REP_ROOF_PLAN
  2
AecDbDispRepRoofPlan
  3
AecArchBase70|Product Desc: Autodesk Architectural Desktop 2007 |Company: Autodesk,Inc. |WEB Address: www.autodesk.com
 90
      129
 91
        0
280
     0
281
     0
  0
CLASS
  1
AEC_DISP_REP_ROOF_RCP
  2
AecDbDispRepRoofRcp
  3
AecArchBase70|Product Desc: Autodesk Architectural Desktop 2007 |Company: Autodesk,Inc. |WEB Address: www.autodesk.com
 90
      129
 91
        0
280
     0
281
     0
  0
CLASS
  1
AEC_DISP_REP_SLAB_MODEL
  2
AecDbDispRepSlabModel
  3
AecArchBase70|Product Desc: Autodesk Architectural Desktop 2007 |Company: Autodesk,Inc. |WEB Address: www.autodesk.com
 90
      129
 91
        0
280
     0
281
     0
  0
CLASS
  1
AEC_DISP_PROPS_SLAB
  2
AecDbDispPropsSlab
  3
AecArchBase70|Product Desc: Autodesk Architectural Desktop 2007 |Company: Autodesk,Inc. |WEB Address: www.autodesk.com
 90
      129
 91
        0
280
     0
281
     0
  0
CLASS
  1
AEC_DISP_REP_ROOFSLAB_MODEL
  2
AecDbDispRepRoofSlabModel
  3
AecArchBase70|Product Desc: Autodesk Architectural Desktop 2007 |Company: Autodesk,Inc. |WEB Address: www.autodesk.com
 90
      129
 91
        0
280
     0
281
     0
  0
CLASS
  1
AEC_DISP_PROPS_ROOFSLAB
  2
AecDbDispPropsRoofSlab
  3
AecArchBase70|Product Desc: Autodesk Architectural Desktop 2007 |Company: Autodesk,Inc. |WEB Address: www.autodesk.com
 90
      129
 91
        0
280
     0
281
     0
  0
CLASS
  1
AEC_DISP_REP_SLAB_PLAN
  2
AecDbDispRepSlabPlan
  3
AecArchBase70|Product Desc: Autodesk Architectural Desktop 2007 |Company: Autodesk,Inc. |WEB Address: www.autodesk.com
 90
      129
 91
        0
280
     0
281
     0
  0
CLASS
  1
AEC_DISP_PROPS_SLAB_PLAN
  2
AecDbDispPropsSlabPlan
  3
AecArchBase70|Product Desc: Autodesk Architectural Desktop 2007 |Company: Autodesk,Inc. |WEB Address: www.autodesk.com
 90
      129
 91
        0
280
     0
281
     0
  0
CLASS
  1
AEC_DISP_REP_ROOFSLAB_PLAN
  2
AecDbDispRepRoofSlabPlan
  3
AecArchBase70|Product Desc: Autodesk Architectural Desktop 2007 |Company: Autodesk,Inc. |WEB Address: www.autodesk.com
 90
      129
 91
        0
280
     0
281
     0
  0
CLASS
  1
AEC_DISP_PROPS_ROOFSLAB_PLAN
  2
AecDbDispPropsRoofSlabPlan
  3
AecArchBase70|Product Desc: Autodesk Architectural Desktop 2007 |Company: Autodesk,Inc. |WEB Address: www.autodesk.com
 90
      129
 91
        0
280
     0
281
     0
  0
CLASS
  1
AEC_DISP_REP_SPACE_DECOMPOSED
  2
AecDbDispRepSpaceDecomposed
  3
AecArchBase70|Product Desc: Autodesk Architectural Desktop 2007 |Company: Autodesk,Inc. |WEB Address: www.autodesk.com
 90
      129
 91
        0
280
     0
281
     0
  0
CLASS
  1
AEC_DISP_PROPS_SPACE_DECOMPOSED
  2
AecDbDispPropsSpaceDecomposed
  3
AecArchBase70|Product Desc: Autodesk Architectural Desktop 2007 |Company: Autodesk,Inc. |WEB Address: www.autodesk.com
 90
      129
 91
        0
280
     0
281
     0
  0
CLASS
  1
AEC_DISP_REP_SPACE_MODEL
  2
AecDbDispRepSpaceModel
  3
AecArchBase70|Product Desc: Autodesk Architectural Desktop 2007 |Company: Autodesk,Inc. |WEB Address: www.autodesk.com
 90
      129
 91
        0
280
     0
281
     0
  0
CLASS
  1
AEC_DISP_PROPS_SPACE_MODEL
  2
AecDbDispPropsSpaceModel
  3
AecArchBase70|Product Desc: Autodesk Architectural Desktop 2007 |Company: Autodesk,Inc. |WEB Address: www.autodesk.com
 90
      129
 91
        0
280
     0
281
     0
  0
CLASS
  1
AEC_DISP_REP_SPACE_PLAN
  2
AecDbDispRepSpacePlan
  3
AecArchBase70|Product Desc: Autodesk Architectural Desktop 2007 |Company: Autodesk,Inc. |WEB Address: www.autodesk.com
 90
      129
 91
        0
280
     0
281
     0
  0
CLASS
  1
AEC_DISP_PROPS_SPACE_PLAN
  2
AecDbDispPropsSpacePlan
  3
AecArchBase70|Product Desc: Autodesk Architectural Desktop 2007 |Company: Autodesk,Inc. |WEB Address: www.autodesk.com
 90
      129
 91
        0
280
     0
281
     0
  0
CLASS
  1
AEC_DISP_REP_SPACE_RCP
  2
AecDbDispRepSpaceRcp
  3
AecArchBase70|Product Desc: Autodesk Architectural Desktop 2007 |Company: Autodesk,Inc. |WEB Address: www.autodesk.com
 90
      129
 91
        0
280
     0
281
     0
  0
CLASS
  1
AEC_DISP_REP_SPACE_VOLUME
  2
AecDbDispRepSpaceVolume
  3
AecArchBase70|Product Desc: Autodesk Architectural Desktop 2007 |Company: Autodesk,Inc. |WEB Address: www.autodesk.com
 90
      129
 91
        0
280
     0
281
     0
  0
CLASS
  1
AEC_DISP_REP_STAIR_MODEL
  2
AecDbDispRepStairModel
  3
AecArchBase70|Product Desc: Autodesk Architectural Desktop 2007 |Company: Autodesk,Inc. |WEB Address: www.autodesk.com
 90
      129
 91
        0
280
     0
281
     0
  0
CLASS
  1
AEC_DISP_PROPS_STAIR_MODEL
  2
AecDbDispPropsStairModel
  3
AecArchBase70|Product Desc: Autodesk Architectural Desktop 2007 |Company: Autodesk,Inc. |WEB Address: www.autodesk.com
 90
      129
 91
        0
280
     0
281
     0
  0
CLASS
  1
AEC_DISP_REP_STAIR_PLAN
  2
AecDbDispRepStairPlan
  3
AecArchBase70|Product Desc: Autodesk Architectural Desktop 2007 |Company: Autodesk,Inc. |WEB Address: www.autodesk.com
 90
      129
 91
        0
280
     0
281
     0
  0
CLASS
  1
AEC_DISP_PROPS_STAIR_PLAN
  2
AecDbDispPropsStairPlan
  3
AecArchBase70|Product Desc: Autodesk Architectural Desktop 2007 |Company: Autodesk,Inc. |WEB Address: www.autodesk.com
 90
      129
 91
        0
280
     0
281
     0
  0
CLASS
  1
AEC_DISP_REP_STAIR_PLAN_OVERLAPPING
  2
AecDbDispRepStairPlanOverlapping
  3
AecArchBase70|Product Desc: Autodesk Architectural Desktop 2007 |Company: Autodesk,Inc. |WEB Address: www.autodesk.com
 90
      129
 91
        0
280
     0
281
     0
  0
CLASS
  1
AEC_DISP_PROPS_STAIR_PLAN_OVERLAPPING
  2
AecDbDispPropsStairPlanOverlapping
  3
AecArchBase70|Product Desc: Autodesk Architectural Desktop 2007 |Company: Autodesk,Inc. |WEB Address: www.autodesk.com
 90
      129
 91
        0
280
     0
281
     0
  0
CLASS
  1
AEC_DISP_REP_STAIR_RCP
  2
AecDbDispRepStairRcp
  3
AecArchBase70|Product Desc: Autodesk Architectural Desktop 2007 |Company: Autodesk,Inc. |WEB Address: www.autodesk.com
 90
      129
 91
        0
280
     0
281
     0
  0
CLASS
  1
AEC_DISP_REP_WALL_GRAPH
  2
AecDbDispRepWallGraph
  3
AecArchBase70|Product Desc: Autodesk Architectural Desktop 2007 |Company: Autodesk,Inc. |WEB Address: www.autodesk.com
 90
      129
 91
        0
280
     0
281
     0
  0
CLASS
  1
AEC_DISP_PROPS_WALL_GRAPH
  2
AecDbDispPropsWallGraph
  3
AecArchBase70|Product Desc: Autodesk Architectural Desktop 2007 |Company: Autodesk,Inc. |WEB Address: www.autodesk.com
 90
      129
 91
        0
280
     0
281
     0
  0
CLASS
  1
AEC_DISP_REP_WALL_MODEL
  2
AecDbDispRepWallModel
  3
AecArchBase70|Product Desc: Autodesk Architectural Desktop 2007 |Company: Autodesk,Inc. |WEB Address: www.autodesk.com
 90
      129
 91
        0
280
     0
281
     0
  0
CLASS
  1
AEC_DISP_PROPS_WALL_MODEL
  2
AecDbDispPropsWallModel
  3
AecArchBase70|Product Desc: Autodesk Architectural Desktop 2007 |Company: Autodesk,Inc. |WEB Address: www.autodesk.com
 90
      129
 91
        0
280
     0
281
     0
  0
CLASS
  1
AEC_DISP_REP_WALL_PLAN
  2
AecDbDispRepWallPlan
  3
AecArchBase70|Product Desc: Autodesk Architectural Desktop 2007 |Company: Autodesk,Inc. |WEB Address: www.autodesk.com
 90
      129
 91
        0
280
     0
281
     0
  0
CLASS
  1
AEC_DISP_PROPS_WALL_PLAN
  2
AecDbDispPropsWallPlan
  3
AecArchBase70|Product Desc: Autodesk Architectural Desktop 2007 |Company: Autodesk,Inc. |WEB Address: www.autodesk.com
 90
      129
 91
        0
280
     0
281
     0
  0
CLASS
  1
AEC_DISP_REP_WALL_RCP
  2
AecDbDispRepWallRcp
  3
AecArchBase70|Product Desc: Autodesk Architectural Desktop 2007 |Company: Autodesk,Inc. |WEB Address: www.autodesk.com
 90
      129
 91
        0
280
     0
281
     0
  0
CLASS
  1
AEC_DISP_REP_WALL_SCHEM
  2
AecDbDispRepWallSchem
  3
AecArchBase70|Product Desc: Autodesk Architectural Desktop 2007 |Company: Autodesk,Inc. |WEB Address: www.autodesk.com
 90
      129
 91
        0
280
     0
281
     0
  0
CLASS
  1
AEC_DISP_PROPS_WALL_SCHEM
  2
AecDbDispPropsWallSchem
  3
AecArchBase70|Product Desc: Autodesk Architectural Desktop 2007 |Company: Autodesk,Inc. |WEB Address: www.autodesk.com
 90
      129
 91
        0
280
     0
281
     0
  0
CLASS
  1
AEC_DISP_REP_WINDOW_ASSEMBLY_MODEL
  2
AecDbDispRepWindowAssemblyModel
  3
AecArchBase70|Product Desc: Autodesk Architectural Desktop 2007 |Company: Autodesk,Inc. |WEB Address: www.autodesk.com
 90
      129
 91
        0
280
     0
281
     0
  0
CLASS
  1
AEC_DISP_REP_WINDOW_ASSEMBLY_PLAN
  2
AecDbDispRepWindowAssemblyPlan
  3
AecArchBase70|Product Desc: Autodesk Architectural Desktop 2007 |Company: Autodesk,Inc. |WEB Address: www.autodesk.com
 90
      129
 91
        0
280
     0
281
     0
  0
CLASS
  1
AEC_DISP_REP_WINDOWASSEMBLY_SILL_PLAN
  2
AecDbDispRepWindowAssemblySillPlan
  3
AecArchBase70|Product Desc: Autodesk Architectural Desktop 2007 |Company: Autodesk,Inc. |WEB Address: www.autodesk.com
 90
      129
 91
        0
280
     0
281
     0
  0
CLASS
  1
AEC_DISP_PROPS_WINDOW_ASSEMBLY_SILL_PLAN
  2
AecDbDispPropsWindowAssemblySillPlan
  3
AecArchBase70|Product Desc: Autodesk Architectural Desktop 2007 |Company: Autodesk,Inc. |WEB Address: www.autodesk.com
 90
      129
 91
        0
280
     0
281
     0
  0
CLASS
  1
AEC_DISP_REP_WINDOW_MODEL
  2
AecDbDispRepWindowModel
  3
AecArchBase70|Product Desc: Autodesk Architectural Desktop 2007 |Company: Autodesk,Inc. |WEB Address: www.autodesk.com
 90
      129
 91
        0
280
     0
281
     0
  0
CLASS
  1
AEC_DISP_PROPS_WINDOW
  2
AecDbDispPropsWindow
  3
AecArchBase70|Product Desc: Autodesk Architectural Desktop 2007 |Company: Autodesk,Inc. |WEB Address: www.autodesk.com
 90
      129
 91
        0
280
     0
281
     0
  0
CLASS
  1
AEC_DISP_REP_WINDOW_ELEV
  2
AecDbDispRepWindowElev
  3
AecArchBase70|Product Desc: Autodesk Architectural Desktop 2007 |Company: Autodesk,Inc. |WEB Address: www.autodesk.com
 90
      129
 91
        0
280
     0
281
     0
  0
CLASS
  1
AEC_DISP_REP_WINDOW_PLAN
  2
AecDbDispRepWindowPlan
  3
AecArchBase70|Product Desc: Autodesk Architectural Desktop 2007 |Company: Autodesk,Inc. |WEB Address: www.autodesk.com
 90
      129
 91
        0
280
     0
281
     0
  0
CLASS
  1
AEC_DISP_REP_WINDOW_NOMINAL
  2
AecDbDispRepWindowNominal
  3
AecArchBase70|Product Desc: Autodesk Architectural Desktop 2007 |Company: Autodesk,Inc. |WEB Address: www.autodesk.com
 90
      129
 91
        0
280
     0
281
     0
  0
CLASS
  1
AEC_DISP_PROPS_WINDOW_NOMINAL
  2
AecDbDispPropsWindowNominal
  3
AecArchBase70|Product Desc: Autodesk Architectural Desktop 2007 |Company: Autodesk,Inc. |WEB Address: www.autodesk.com
 90
      129
 91
        0
280
     0
281
     0
  0
CLASS
  1
AEC_DISP_REP_WINDOW_RCP
  2
AecDbDispRepWindowRcp
  3
AecArchBase70|Product Desc: Autodesk Architectural Desktop 2007 |Company: Autodesk,Inc. |WEB Address: www.autodesk.com
 90
      129
 91
        0
280
     0
281
     0
  0
CLASS
  1
AEC_DISP_REP_WINDOW_SILL_PLAN
  2
AecDbDispRepWindowSillPlan
  3
AecArchBase70|Product Desc: Autodesk Architectural Desktop 2007 |Company: Autodesk,Inc. |WEB Address: www.autodesk.com
 90
      129
 91
        0
280
     0
281
     0
  0
CLASS
  1
AEC_DISP_PROPS_WINDOW_SILL_PLAN
  2
AecDbDispPropsWindowSillPlan
  3
AecArchBase70|Product Desc: Autodesk Architectural Desktop 2007 |Company: Autodesk,Inc. |WEB Address: www.autodesk.com
 90
      129
 91
        0
280
     0
281
     0
  0
CLASS
  1
AEC_DISP_REP_ZONE
  2
AecDbDispRepZone
  3
AecArchBase70|Product Desc: Autodesk Architectural Desktop 2007 |Company: Autodesk,Inc. |WEB Address: www.autodesk.com
 90
      129
 91
        0
280
     0
281
     0
  0
CLASS
  1
AEC_DISP_PROPS_ZONE
  2
AecDbDispPropsZone
  3
AecArchBase70|Product Desc: Autodesk Architectural Desktop 2007 |Company: Autodesk,Inc. |WEB Address: www.autodesk.com
 90
      129
 91
        0
280
     0
281
     0
  0
CLASS
  1
AECC_DISP_REP_VALIGNMENT_CSV
  2
AeccDbDispRepVAlignmentCSV
  3
AeccLand100|Product Desc: AutoCAD Civil 3D |Company: Autodesk,Inc. |WEB Address: www.autodesk.com
 90
        0
 91
        0
280
     0
281
     0
  0
CLASS
  1
AECC_DISP_REP_PROFILE
  2
AeccDbDispRepVAlignment
  3
AeccLand100|Product Desc: AutoCAD Civil 3D |Company: Autodesk,Inc. |WEB Address: www.autodesk.com
 90
      129
 91
        0
280
     0
281
     0
  0
CLASS
  1
AECC_DISP_REP_TIN_SURFACE_CSV
  2
AeccDbDispRepSurfaceTinCSV
  3
AeccLand100|Product Desc: AutoCAD Civil 3D |Company: Autodesk,Inc. |WEB Address: www.autodesk.com
 90
      129
 91
        0
280
     0
281
     0
  0
CLASS
  1
AECC_DISP_REP_TIN_SURFACE
  2
AeccDbDispRepSurfaceTin
  3
AeccLand100|Product Desc: AutoCAD Civil 3D |Company: Autodesk,Inc. |WEB Address: www.autodesk.com
 90
      129
 91
        0
280
     0
281
     0
  0
CLASS
  1
AECC_DISP_REP_VALIGNMENT_SAGCURVE_LABEL_GROUP
  2
AeccDbViewVAlignmentSagCurveLabeling
  3
AeccLand100|Product Desc: AutoCAD Civil 3D |Company: Autodesk,Inc. |WEB Address: www.autodesk.com
 90
        0
 91
        0
280
     0
281
     0
  0
CLASS
  1
AECC_DISP_REP_GRID_SURFACE
  2
AeccDbDispRepSurfaceGrid
  3
AeccLand100|Product Desc: AutoCAD Civil 3D |Company: Autodesk,Inc. |WEB Address: www.autodesk.com
 90
      129
 91
        0
280
     0
281
     0
  0
CLASS
  1
AECC_DISP_REP_SHEET
  2
AeccDbDispRepSheet
  3
AeccLand100|Product Desc: AutoCAD Civil 3D |Company: Autodesk,Inc. |WEB Address: www.autodesk.com
 90
      129
 91
        0
280
     0
281
     0
  0
CLASS
  1
AECC_DISP_REP_VALIGNMENT_LINE_LABEL_GROUP
  2
AeccDbViewVAlignmentLineLabeling
  3
AeccLand100|Product Desc: AutoCAD Civil 3D |Company: Autodesk,Inc. |WEB Address: www.autodesk.com
 90
        0
 91
        0
280
     0
281
     0
  0
CLASS
  1
AECC_DISP_REP_VALIGNMENT_PVI_LABEL_GROUP
  2
AeccDbViewVAlignmentPVILabeling
  3
AeccLand100|Product Desc: AutoCAD Civil 3D |Company: Autodesk,Inc. |WEB Address: www.autodesk.com
 90
        0
 91
        0
280
     0
281
     0
  0
CLASS
  1
AECC_DISP_REP_SECTION_OFFSET_LABEL_GROUP
  2
AeccDbViewSectionOffsetLabeling
  3
AeccLand100|Product Desc: AutoCAD Civil 3D |Company: Autodesk,Inc. |WEB Address: www.autodesk.com
 90
        0
 91
        0
280
     0
281
     0
  0
CLASS
  1
AECC_DISP_REP_SECTION_SEGMENT_LABEL_GROUP
  2
AeccDbViewSectionSegmentLabeling
  3
AeccLand100|Product Desc: AutoCAD Civil 3D |Company: Autodesk,Inc. |WEB Address: www.autodesk.com
 90
        0
 91
        0
280
     0
281
     0
  0
CLASS
  1
AECC_DISP_REP_VALIGNMENT_MINOR_STATION_LABEL_GROUP
  2
AeccDbViewVAlignmentMinorStationLabeling
  3
AeccLand100|Product Desc: AutoCAD Civil 3D |Company: Autodesk,Inc. |WEB Address: www.autodesk.com
 90
        0
 91
        0
280
     0
281
     0
  0
CLASS
  1
AECC_DISP_REP_TANGENT_INTERSECTION_TABLE
  2
AeccDbViewTangentIntersectionTable
  3
AeccLand100|Product Desc: AutoCAD Civil 3D |Company: Autodesk,Inc. |WEB Address: www.autodesk.com
 90
        0
 91
        0
280
     0
281
     0
  0
CLASS
  1
AECC_DISP_REP_SURFACE_SLOPE_LABEL
  2
AeccDbViewSurfaceSlopeLabel
  3
AeccLand100|Product Desc: AutoCAD Civil 3D |Company: Autodesk,Inc. |WEB Address: www.autodesk.com
 90
        0
 91
        0
280
     0
281
     0
  0
CLASS
  1
AECC_DISP_REP_SURFACE_ELEVATION_LABEL
  2
AeccDbViewSurfaceElevLabel
  3
AeccLand100|Product Desc: AutoCAD Civil 3D |Company: Autodesk,Inc. |WEB Address: www.autodesk.com
 90
        0
 91
        0
280
     0
281
     0
  0
CLASS
  1
AECC_DISP_REP_SURFACE_CONTOUR_LABEL_GROUP
  2
AeccDbViewSurfaceContourLabeling
  3
AeccLand100|Product Desc: AutoCAD Civil 3D |Company: Autodesk,Inc. |WEB Address: www.autodesk.com
 90
        0
 91
        0
280
     0
281
     0
  0
CLASS
  1
AECC_DISP_REP_ALIGNMENT_STATION_OFFSET_LABEL
  2
AeccDbViewStaOffsetLabel
  3
AeccLand100|Product Desc: AutoCAD Civil 3D |Company: Autodesk,Inc. |WEB Address: www.autodesk.com
 90
        0
 91
        0
280
     0
281
     0
  0
CLASS
  1
AECC_DISP_REP_SECTION_MINOR_OFFSET_LABEL_GROUP
  2
AeccDbViewSectionMinorOffsetLabeling
  3
AeccLand100|Product Desc: AutoCAD Civil 3D |Company: Autodesk,Inc. |WEB Address: www.autodesk.com
 90
        0
 91
        0
280
     0
281
     0
  0
CLASS
  1
AECC_DISP_REP_SECTION_GRADEBREAK_LABEL_GROUP
  2
AeccDbViewSectionGradeBreakLabeling
  3
AeccLand100|Product Desc: AutoCAD Civil 3D |Company: Autodesk,Inc. |WEB Address: www.autodesk.com
 90
        0
 91
        0
280
     0
281
     0
  0
CLASS
  1
AECC_DISP_REP_PARCEL_FACE_LABEL
  2
AeccDbViewParcelFaceLabel
  3
AeccLand100|Product Desc: AutoCAD Civil 3D |Company: Autodesk,Inc. |WEB Address: www.autodesk.com
 90
        0
 91
        0
280
     0
281
     0
  0
CLASS
  1
AECC_DISP_REP_PARCEL_BOUNDARY
  2
AeccDbViewParcelBoundary
  3
AeccLand100|Product Desc: AutoCAD Civil 3D |Company: Autodesk,Inc. |WEB Address: www.autodesk.com
 90
        0
 91
        0
280
     0
281
     0
  0
CLASS
  1
AECC_DISP_REP_ALIGNMENT_DESIGNSPEED_LABEL_GROUP
  2
AeccDbViewAlignmentDesignSpeedLabeling
  3
AeccLand100|Product Desc: AutoCAD Civil 3D |Company: Autodesk,Inc. |WEB Address: www.autodesk.com
 90
        0
 91
        0
280
     0
281
     0
  0
CLASS
  1
AECC_DISP_REP_ALIGNMENT_CURVE_LABEL
  2
AeccDbViewAlignmentCurveLabel
  3
AeccLand100|Product Desc: AutoCAD Civil 3D |Company: Autodesk,Inc. |WEB Address: www.autodesk.com
 90
        0
 91
        0
280
     0
281
     0
  0
CLASS
  1
AECC_DISP_REP_LABELING
  2
AeccDbViewLabeling
  3
AeccLand100|Product Desc: AutoCAD Civil 3D |Company: Autodesk,Inc. |WEB Address: www.autodesk.com
 90
        0
 91
        0
280
     0
281
     0
  0
CLASS
  1
AECC_DISP_REP_ALIGNMENT_CSV
  2
AeccDbViewAlignmentCSV
  3
AeccLand100|Product Desc: AutoCAD Civil 3D |Company: Autodesk,Inc. |WEB Address: www.autodesk.com
 90
        0
 91
        0
280
     0
281
     0
  0
CLASS
  1
AECC_DISP_REP_ALIGNMENT
  2
AeccDbViewAlignment
  3
AeccLand100|Product Desc: AutoCAD Civil 3D |Company: Autodesk,Inc. |WEB Address: www.autodesk.com
 90
        0
 91
        0
280
     0
281
     0
  0
CLASS
  1
AECC_DISP_REP_OFFSET_ELEV_LABEL
  2
AeccDbViewOffsetElevLabel
  3
AeccLand100|Product Desc: AutoCAD Civil 3D |Company: Autodesk,Inc. |WEB Address: www.autodesk.com
 90
        0
 91
        0
280
     0
281
     0
  0
CLASS
  1
AECC_DISP_REP_NOTE_LABEL
  2
AeccDbViewNoteLabel
  3
AeccLand100|Product Desc: AutoCAD Civil 3D |Company: Autodesk,Inc. |WEB Address: www.autodesk.com
 90
        0
 91
        0
280
     0
281
     0
  0
CLASS
  1
AECC_DISP_REP_PARCEL_SEGMENT
  2
AeccDbViewLotLine
  3
AeccLand100|Product Desc: AutoCAD Civil 3D |Company: Autodesk,Inc. |WEB Address: www.autodesk.com
 90
        0
 91
        0
280
     0
281
     0
  0
CLASS
  1
AECC_DISP_REP_LEGEND_TABLE
  2
AeccDbViewLegendScheduleTable
  3
AeccLand100|Product Desc: AutoCAD Civil 3D |Company: Autodesk,Inc. |WEB Address: www.autodesk.com
 90
        0
 91
        0
280
     0
281
     0
  0
CLASS
  1
AECC_DISP_REP_GENERAL_SEGMENT_LABEL
  2
AeccDbViewGeneralLabel
  3
AeccLand100|Product Desc: AutoCAD Civil 3D |Company: Autodesk,Inc. |WEB Address: www.autodesk.com
 90
        0
 91
        0
280
     0
281
     0
  0
CLASS
  1
AECC_DISP_REP_FEATURE_LABEL
  2
AeccDbViewFeatureLabel
  3
AeccLand100|Product Desc: AutoCAD Civil 3D |Company: Autodesk,Inc. |WEB Address: www.autodesk.com
 90
        0
 91
        0
280
     0
281
     0
  0
CLASS
  1
AECC_DISP_REP_FEATURE
  2
AeccDbViewFeature
  3
AeccLand100|Product Desc: AutoCAD Civil 3D |Company: Autodesk,Inc. |WEB Address: www.autodesk.com
 90
        0
 91
        0
280
     0
281
     0
  0
CLASS
  1
AECC_DISP_REP_PARCEL_TABLE
  2
AeccDbViewFaceScheduleTable
  3
AeccLand100|Product Desc: AutoCAD Civil 3D |Company: Autodesk,Inc. |WEB Address: www.autodesk.com
 90
        0
 91
        0
280
     0
281
     0
  0
CLASS
  1
AECC_DISP_REP_FACE
  2
AeccDbViewFace
  3
AeccLand100|Product Desc: AutoCAD Civil 3D |Company: Autodesk,Inc. |WEB Address: www.autodesk.com
 90
        0
 91
        0
280
     0
281
     0
  0
CLASS
  1
AECC_DISP_REP_ALIGNMENT_VERTICAL_GEOMPT_LABELING
  2
AeccDbViewAlignmentVAGeomPointLabeling
  3
AeccLand100|Product Desc: AutoCAD Civil 3D |Company: Autodesk,Inc. |WEB Address: www.autodesk.com
 90
        0
 91
        0
280
     0
281
     0
  0
CLASS
  1
AECC_DISP_REP_ALIGNMENT_TANGENT_LABEL
  2
AeccDbViewAlignmentTangentLabel
  3
AeccLand100|Product Desc: AutoCAD Civil 3D |Company: Autodesk,Inc. |WEB Address: www.autodesk.com
 90
        0
 91
        0
280
     0
281
     0
  0
CLASS
  1
AECC_DISP_REP_ALIGNMENT_TABLE
  2
AeccDbViewAlignmentTable
  3
AeccLand100|Product Desc: AutoCAD Civil 3D |Company: Autodesk,Inc. |WEB Address: www.autodesk.com
 90
        0
 91
        0
280
     0
281
     0
  0
CLASS
  1
AECC_DISP_REP_ALIGNMENT_SUPERELEVATION_LABEL_GROUP
  2
AeccDbViewAlignmentSuperelevationLabeling
  3
AeccLand100|Product Desc: AutoCAD Civil 3D |Company: Autodesk,Inc. |WEB Address: www.autodesk.com
 90
        0
 91
        0
280
     0
281
     0
  0
CLASS
  1
AECC_DISP_REP_ALIGNMENT_STATION_LABEL_GROUP
  2
AeccDbViewAlignmentStationLabeling
  3
AeccLand100|Product Desc: AutoCAD Civil 3D |Company: Autodesk,Inc. |WEB Address: www.autodesk.com
 90
        0
 91
        0
280
     0
281
     0
  0
CLASS
  1
AECC_DISP_REP_ALIGNMENT_STAEQU_LABEL_GROUP
  2
AeccDbViewAlignmentStaEquLabeling
  3
AeccLand100|Product Desc: AutoCAD Civil 3D |Company: Autodesk,Inc. |WEB Address: www.autodesk.com
 90
        0
 91
        0
280
     0
281
     0
  0
CLASS
  1
AECC_DISP_REP_ALIGNMENT_SPIRAL_LABEL
  2
AeccDbViewAlignmentSpiralLabel
  3
AeccLand100|Product Desc: AutoCAD Civil 3D |Company: Autodesk,Inc. |WEB Address: www.autodesk.com
 90
        0
 91
        0
280
     0
281
     0
  0
CLASS
  1
AECC_DISP_REP_ALIGNMENT_PI_LABEL
  2
AeccDbViewAlignmentPILabel
  3
AeccLand100|Product Desc: AutoCAD Civil 3D |Company: Autodesk,Inc. |WEB Address: www.autodesk.com
 90
        0
 91
        0
280
     0
281
     0
  0
CLASS
  1
AECC_DISP_REP_SAMPLELINE_LABELING
  2
AeccDbViewSampleLineLabeling
  3
AeccLand100|Product Desc: AutoCAD Civil 3D |Company: Autodesk,Inc. |WEB Address: www.autodesk.com
 90
        0
 91
        0
280
     0
281
     0
  0
CLASS
  1
AECC_DISP_REP_RIGHT_OF_WAY
  2
AeccDbViewRightofWay
  3
AeccLand100|Product Desc: AutoCAD Civil 3D |Company: Autodesk,Inc. |WEB Address: www.autodesk.com
 90
        0
 91
        0
280
     0
281
     0
  0
CLASS
  1
AECC_DISP_REP_ALIGNMENT_MINOR_STATION_LABEL_GROUP
  2
AeccDbViewAlignmentMinorStationLabeling
  3
AeccLand100|Product Desc: AutoCAD Civil 3D |Company: Autodesk,Inc. |WEB Address: www.autodesk.com
 90
        0
 91
        0
280
     0
281
     0
  0
CLASS
  1
AECC_DISP_REP_ALIGNMENT_GEOMPT_LABEL_GROUP
  2
AeccDbViewAlignmentGeomPointLabeling
  3
AeccLand100|Product Desc: AutoCAD Civil 3D |Company: Autodesk,Inc. |WEB Address: www.autodesk.com
 90
        0
 91
        0
280
     0
281
     0
  0
CLASS
  1
AECC_DISP_REP_PROFILE_VIEW_DEPTH_LABEL
  2
AeccDbViewProfileViewDepthLabel
  3
AeccLand100|Product Desc: AutoCAD Civil 3D |Company: Autodesk,Inc. |WEB Address: www.autodesk.com
 90
        0
 91
        0
280
     0
281
     0
  0
CLASS
  1
AECC_DISP_REP_POINT_TABLE
  2
AeccDbViewPointScheduleTable
  3
AeccLand100|Product Desc: AutoCAD Civil 3D |Company: Autodesk,Inc. |WEB Address: www.autodesk.com
 90
        0
 91
        0
280
     0
281
     0
  0
CLASS
  1
AECC_DISP_REP_POINT_ENT
  2
AeccDbViewPointEnt
  3
AeccLand100|Product Desc: AutoCAD Civil 3D |Company: Autodesk,Inc. |WEB Address: www.autodesk.com
 90
        0
 91
        0
280
     0
281
     0
  0
CLASS
  1
AECC_DISP_REP_PARCEL_SEGMENT_TABLE
  2
AeccDbViewParcelSegmentTable
  3
AeccLand100|Product Desc: AutoCAD Civil 3D |Company: Autodesk,Inc. |WEB Address: www.autodesk.com
 90
        0
 91
        0
280
     0
281
     0
  0
CLASS
  1
AECC_DISP_REP_POINT_GROUP
  2
AeccDbViewPointGroup
  3
AeccLand100|Product Desc: AutoCAD Civil 3D |Company: Autodesk,Inc. |WEB Address: www.autodesk.com
 90
        0
 91
        0
280
     0
281
     0
  0
CLASS
  1
AECC_DISP_REP_PARCEL_SEGMENT_LABEL
  2
AeccDbViewParcelSegmentLabel
  3
AeccLand100|Product Desc: AutoCAD Civil 3D |Company: Autodesk,Inc. |WEB Address: www.autodesk.com
 90
        0
 91
        0
280
     0
281
     0
  0
CLASS
  1
AECC_DISP_REP_VALIGNMENT_CRESTCURVE_LABEL_GROUP
  2
AeccDbViewVAlignmentCrestCurveLabeling
  3
AeccLand100|Product Desc: AutoCAD Civil 3D |Company: Autodesk,Inc. |WEB Address: www.autodesk.com
 90
        0
 91
        0
280
     0
281
     0
  0
CLASS
  1
AECC_DISP_REP_STATION_ELEV_LABEL
  2
AeccDbViewStaElevLabel
  3
AeccLand100|Product Desc: AutoCAD Civil 3D |Company: Autodesk,Inc. |WEB Address: www.autodesk.com
 90
        0
 91
        0
280
     0
281
     0
  0
CLASS
  1
AECC_DISP_REP_VALIGNMENT_HAGEOMPT_LABEL_GROUP
  2
AeccDbViewVAlignmentHAGeomPointLabeling
  3
AeccLand100|Product Desc: AutoCAD Civil 3D |Company: Autodesk,Inc. |WEB Address: www.autodesk.com
 90
        0
 91
        0
280
     0
281
     0
  0
CLASS
  1
AECC_DISP_REP_SECTION_VIEW_DEPTH_LABEL
  2
AeccDbViewSectionViewDepthLabel
  3
AeccLand100|Product Desc: AutoCAD Civil 3D |Company: Autodesk,Inc. |WEB Address: www.autodesk.com
 90
        0
 91
        0
280
     0
281
     0
  0
CLASS
  1
AECC_DISP_REP_VALIGNMENT_STATION_LABEL_GROUP
  2
AeccDbViewVAlignmentStationLabeling
  3
AeccLand100|Product Desc: AutoCAD Civil 3D |Company: Autodesk,Inc. |WEB Address: www.autodesk.com
 90
        0
 91
        0
280
     0
281
     0
  0
CLASS
  1
AECC_DISP_REP_AUTO_FEATURE_LINE
  2
AeccDbDispRepAutoFeatureLine
  3
AeccLand100|Product Desc: AutoCAD Civil 3D |Company: Autodesk,Inc. |WEB Address: www.autodesk.com
 90
        0
 91
        0
280
     0
281
     0
  0
CLASS
  1
AECC_DISP_REP_AUTO_FEATURE_LINE_CSV
  2
AeccDbDispRepAutoFeatureLineCSV
  3
AeccLand100|Product Desc: AutoCAD Civil 3D |Company: Autodesk,Inc. |WEB Address: www.autodesk.com
 90
        0
 91
        0
280
     0
281
     0
  0
CLASS
  1
AECC_DISP_REP_FEATURE_LINE
  2
AeccDbDispRepFeatureLine
  3
AeccLand100|Product Desc: AutoCAD Civil 3D |Company: Autodesk,Inc. |WEB Address: www.autodesk.com
 90
        0
 91
        0
280
     0
281
     0
  0
CLASS
  1
AECC_DISP_REP_FEATURE_LINE_CSV
  2
AeccDbDispRepFeatureLineCSV
  3
AeccLand100|Product Desc: AutoCAD Civil 3D |Company: Autodesk,Inc. |WEB Address: www.autodesk.com
 90
        0
 91
        0
280
     0
281
     0
  0
CLASS
  1
AECC_DISP_REP_GRADING
  2
AeccDbDispRepGrading
  3
AeccLand100|Product Desc: AutoCAD Civil 3D |Company: Autodesk,Inc. |WEB Address: www.autodesk.com
 90
      129
 91
        0
280
     0
281
     0
  0
CLASS
  1
AECC_DISP_REP_GRAPH
  2
AeccDbDispRepGraph
  3
AeccLand100|Product Desc: AutoCAD Civil 3D |Company: Autodesk,Inc. |WEB Address: www.autodesk.com
 90
      129
 91
        0
280
     0
281
     0
  0
CLASS
  1
AECC_DISP_REP_SECTION_VIEW
  2
AeccDbDispRepGraphCrossSection
  3
AeccLand100|Product Desc: AutoCAD Civil 3D |Company: Autodesk,Inc. |WEB Address: www.autodesk.com
 90
      129
 91
        0
280
     0
281
     0
  0
CLASS
  1
AECC_DISP_REP_MASS_HAUL_VIEW
  2
AeccDbDispRepGraphMassHaulView
  3
AeccLand100|Product Desc: AutoCAD Civil 3D |Company: Autodesk,Inc. |WEB Address: www.autodesk.com
 90
      129
 91
        0
280
     0
281
     0
  0
CLASS
  1
AECC_DISP_REP_PROFILE_VIEW
  2
AeccDbDispRepGraphProfile
  3
AeccLand100|Product Desc: AutoCAD Civil 3D |Company: Autodesk,Inc. |WEB Address: www.autodesk.com
 90
      129
 91
        0
280
     0
281
     0
  0
CLASS
  1
AECC_DISP_REP_MASSHAULLINE
  2
AeccDbDispRepMassHaulLine
  3
AeccLand100|Product Desc: AutoCAD Civil 3D |Company: Autodesk,Inc. |WEB Address: www.autodesk.com
 90
      129
 91
        0
280
     0
281
     0
  0
CLASS
  1
AECC_DISP_REP_MATERIAL_SECTION
  2
AeccDbDispRepMaterialSection
  3
AeccLand100|Product Desc: AutoCAD Civil 3D |Company: Autodesk,Inc. |WEB Address: www.autodesk.com
 90
      129
 91
        0
280
     0
281
     0
  0
CLASS
  1
AECC_DISP_REP_QUANTITY_TAKEOFF_AGGREGATE_EARTHWORK_TABLE
  2
AeccDbDispRepQuantityTakeoffAggregateTable
  3
AeccLand100|Product Desc: AutoCAD Civil 3D |Company: Autodesk,Inc. |WEB Address: www.autodesk.com
 90
        0
 91
        0
280
     0
281
     0
  0
CLASS
  1
AECC_DISP_REP_SAMPLE_LINE
  2
AeccDbDispRepSampleLine
  3
AeccLand100|Product Desc: AutoCAD Civil 3D |Company: Autodesk,Inc. |WEB Address: www.autodesk.com
 90
      129
 91
        0
280
     0
281
     0
  0
CLASS
  1
AECC_DISP_REP_SAMPLE_LINE_GROUP
  2
AeccDbDispRepSampleLineGroup
  3
AeccLand100|Product Desc: AutoCAD Civil 3D |Company: Autodesk,Inc. |WEB Address: www.autodesk.com
 90
      129
 91
        0
280
     0
281
     0
  0
CLASS
  1
AECC_DISP_REP_SECTION
  2
AeccDbDispRepSection
  3
AeccLand100|Product Desc: AutoCAD Civil 3D |Company: Autodesk,Inc. |WEB Address: www.autodesk.com
 90
      129
 91
        0
280
     0
281
     0
  0
CLASS
  1
AECC_DISP_REP_SECTION_VIEW_QUANTITY_TAKEOFF_TABLE
  2
AeccDbDispRepSectionViewQuantityTakeoffTable
  3
AeccLand100|Product Desc: AutoCAD Civil 3D |Company: Autodesk,Inc. |WEB Address: www.autodesk.com
 90
        0
 91
        0
280
     0
281
     0
  0
CLASS
  1
AEC_DISP_REP_COL_BLOCK
  2
AeccuDbDispRepColBlock
  3
AeccParamPart100|Product Desc: AutoCAD Civil 3D |Company: Autodesk,Inc. |WEB Address: www.autodesk.com
 90
      129
 91
        0
280
     0
281
     0
  0
CLASS
  1
AEC_DISP_REP_COL_CIRCARC2D
  2
AeccuDbDispRepColCircArc2d
  3
AeccParamPart100|Product Desc: AutoCAD Civil 3D |Company: Autodesk,Inc. |WEB Address: www.autodesk.com
 90
      129
 91
        0
280
     0
281
     0
  0
CLASS
  1
AEC_DISP_REP_COL_CONCOINCIDENT
  2
AeccuDbDispRepColConCoincident
  3
AeccParamPart100|Product Desc: AutoCAD Civil 3D |Company: Autodesk,Inc. |WEB Address: www.autodesk.com
 90
      129
 91
        0
280
     0
281
     0
  0
CLASS
  1
AEC_DISP_REP_COL_CONCONCENTRIC
  2
AeccuDbDispRepColConConcentric
  3
AeccParamPart100|Product Desc: AutoCAD Civil 3D |Company: Autodesk,Inc. |WEB Address: www.autodesk.com
 90
      129
 91
        0
280
     0
281
     0
  0
CLASS
  1
AEC_DISP_REP_COL_CONEQUALDISTANCE
  2
AeccuDbDispRepColConEqualDistance
  3
AeccParamPart100|Product Desc: AutoCAD Civil 3D |Company: Autodesk,Inc. |WEB Address: www.autodesk.com
 90
      129
 91
        0
280
     0
281
     0
  0
CLASS
  1
AEC_DISP_REP_COL_CONMIDPOINT
  2
AeccuDbDispRepColConMidpoint
  3
AeccParamPart100|Product Desc: AutoCAD Civil 3D |Company: Autodesk,Inc. |WEB Address: www.autodesk.com
 90
      129
 91
        0
280
     0
281
     0
  0
CLASS
  1
AEC_DISP_REP_COL_CONNORMAL
  2
AeccuDbDispRepColConNormal
  3
AeccParamPart100|Product Desc: AutoCAD Civil 3D |Company: Autodesk,Inc. |WEB Address: www.autodesk.com
 90
      129
 91
        0
280
     0
281
     0
  0
CLASS
  1
AEC_DISP_REP_COL_CONPARALLEL
  2
AeccuDbDispRepColConParallel
  3
AeccParamPart100|Product Desc: AutoCAD Civil 3D |Company: Autodesk,Inc. |WEB Address: www.autodesk.com
 90
      129
 91
        0
280
     0
281
     0
  0
CLASS
  1
AEC_DISP_REP_COL_CONPERPENDICULAR
  2
AeccuDbDispRepColConPerpendicular
  3
AeccParamPart100|Product Desc: AutoCAD Civil 3D |Company: Autodesk,Inc. |WEB Address: www.autodesk.com
 90
      129
 91
        0
280
     0
281
     0
  0
CLASS
  1
AEC_DISP_REP_COL_CONSYMMETRIC
  2
AeccuDbDispRepColConSymmetric
  3
AeccParamPart100|Product Desc: AutoCAD Civil 3D |Company: Autodesk,Inc. |WEB Address: www.autodesk.com
 90
      129
 91
        0
280
     0
281
     0
  0
CLASS
  1
AEC_DISP_REP_COL_CONTANGENT
  2
AeccuDbDispRepColConTangent
  3
AeccParamPart100|Product Desc: AutoCAD Civil 3D |Company: Autodesk,Inc. |WEB Address: www.autodesk.com
 90
      129
 91
        0
280
     0
281
     0
  0
CLASS
  1
AEC_DISP_REP_COL_CONNECTOR
  2
AeccuDbDispRepColConnector
  3
AeccParamPart100|Product Desc: AutoCAD Civil 3D |Company: Autodesk,Inc. |WEB Address: www.autodesk.com
 90
      129
 91
        0
280
     0
281
     0
  0
CLASS
  1
AEC_DISP_REP_COL_DIMANGLE
  2
AeccuDbDispRepColDimAngle
  3
AeccParamPart100|Product Desc: AutoCAD Civil 3D |Company: Autodesk,Inc. |WEB Address: www.autodesk.com
 90
      129
 91
        0
280
     0
281
     0
  0
CLASS
  1
AEC_DISP_REP_DCM_DIMRADIUS
  2
AeccuDbDispRepColDimRadius
  3
AeccParamPart100|Product Desc: AutoCAD Civil 3D |Company: Autodesk,Inc. |WEB Address: www.autodesk.com
 90
      129
 91
        0
280
     0
281
     0
  0
CLASS
  1
AEC_DISP_REP_COL_DIMDIAMETER
  2
AeccuDbDispRepColDimDiameter
  3
AeccParamPart100|Product Desc: AutoCAD Civil 3D |Company: Autodesk,Inc. |WEB Address: www.autodesk.com
 90
      129
 91
        0
280
     0
281
     0
  0
CLASS
  1
AEC_DISP_REP_COL_DIMDISTANCE
  2
AeccuDbDispRepColDimDistance
  3
AeccParamPart100|Product Desc: AutoCAD Civil 3D |Company: Autodesk,Inc. |WEB Address: www.autodesk.com
 90
      129
 91
        0
280
     0
281
     0
  0
CLASS
  1
AEC_DISP_REP_COL_DIMLENGTH
  2
AeccuDbDispRepColDimLength
  3
AeccParamPart100|Product Desc: AutoCAD Civil 3D |Company: Autodesk,Inc. |WEB Address: www.autodesk.com
 90
      129
 91
        0
280
     0
281
     0
  0
CLASS
  1
AEC_DISP_REP_COL_DIMMAJORRADIUS
  2
AeccuDbDispRepColDimMajorRadius
  3
AeccParamPart100|Product Desc: AutoCAD Civil 3D |Company: Autodesk,Inc. |WEB Address: www.autodesk.com
 90
      129
 91
        0
280
     0
281
     0
  0
CLASS
  1
AEC_DISP_REP_COL_DIMMINORRADIUS
  2
AeccuDbDispRepColDimMinorRadius
  3
AeccParamPart100|Product Desc: AutoCAD Civil 3D |Company: Autodesk,Inc. |WEB Address: www.autodesk.com
 90
      129
 91
        0
280
     0
281
     0
  0
CLASS
  1
AEC_DISP_REP_COL_ELLIPARC2D
  2
AeccuDbDispRepColEllipArc2d
  3
AeccParamPart100|Product Desc: AutoCAD Civil 3D |Company: Autodesk,Inc. |WEB Address: www.autodesk.com
 90
      129
 91
        0
280
     0
281
     0
  0
CLASS
  1
AEC_DISP_REP_COL_LAYOUTDATA
  2
AeccuDbDispRepColLayoutData
  3
AeccParamPart100|Product Desc: AutoCAD Civil 3D |Company: Autodesk,Inc. |WEB Address: www.autodesk.com
 90
      129
 91
        0
280
     0
281
     0
  0
CLASS
  1
AEC_DISP_REP_COL_LINE2D
  2
AeccuDbDispRepColLine2d
  3
AeccParamPart100|Product Desc: AutoCAD Civil 3D |Company: Autodesk,Inc. |WEB Address: www.autodesk.com
 90
      129
 91
        0
280
     0
281
     0
  0
CLASS
  1
AEC_DISP_REP_COL_MODIFIER_ADD
  2
AeccuDbDispRepColModAdd
  3
AeccParamPart100|Product Desc: AutoCAD Civil 3D |Company: Autodesk,Inc. |WEB Address: www.autodesk.com
 90
      129
 91
        0
280
     0
281
     0
  0
CLASS
  1
AEC_DISP_REP_COL_MODIFIER_CUTPLANE
  2
AeccuDbDispRepColModCutPlane
  3
AeccParamPart100|Product Desc: AutoCAD Civil 3D |Company: Autodesk,Inc. |WEB Address: www.autodesk.com
 90
      129
 91
        0
280
     0
281
     0
  0
CLASS
  1
AEC_DISP_REP_COL_MODIFIER_EXTRUSION
  2
AeccuDbDispRepColModExtrusion
  3
AeccParamPart100|Product Desc: AutoCAD Civil 3D |Company: Autodesk,Inc. |WEB Address: www.autodesk.com
 90
      129
 91
        0
280
     0
281
     0
  0
CLASS
  1
AEC_DISP_REP_COL_MODIFIER_GROUP
  2
AeccuDbDispRepColModGroup
  3
AeccParamPart100|Product Desc: AutoCAD Civil 3D |Company: Autodesk,Inc. |WEB Address: www.autodesk.com
 90
      129
 91
        0
280
     0
281
     0
  0
CLASS
  1
AEC_DISP_REP_COL_MODIFIER_PATH
  2
AeccuDbDispRepColModPath
  3
AeccParamPart100|Product Desc: AutoCAD Civil 3D |Company: Autodesk,Inc. |WEB Address: www.autodesk.com
 90
      129
 91
        0
280
     0
281
     0
  0
CLASS
  1
AEC_DISP_REP_COL_MODIFIER_SUBTRACT
  2
AeccuDbDispRepColModSubtract
  3
AeccParamPart100|Product Desc: AutoCAD Civil 3D |Company: Autodesk,Inc. |WEB Address: www.autodesk.com
 90
      129
 91
        0
280
     0
281
     0
  0
CLASS
  1
AEC_DISP_REP_COL_MODIFIER_TRANSITION
  2
AeccuDbDispRepColModTransition
  3
AeccParamPart100|Product Desc: AutoCAD Civil 3D |Company: Autodesk,Inc. |WEB Address: www.autodesk.com
 90
      129
 91
        0
280
     0
281
     0
  0
CLASS
  1
AEC_DISP_REP_COL_POINT2D
  2
AeccuDbDispRepColPoint2d
  3
AeccParamPart100|Product Desc: AutoCAD Civil 3D |Company: Autodesk,Inc. |WEB Address: www.autodesk.com
 90
      129
 91
        0
280
     0
281
     0
  0
CLASS
  1
AEC_DISP_REP_COL_PROFILE
  2
AeccuDbDispRepColProfile
  3
AeccParamPart100|Product Desc: AutoCAD Civil 3D |Company: Autodesk,Inc. |WEB Address: www.autodesk.com
 90
      129
 91
        0
280
     0
281
     0
  0
CLASS
  1
AEC_DISP_REP_COL_WORKPLANE
  2
AeccuDbDispRepColWorkPlane
  3
AeccParamPart100|Product Desc: AutoCAD Civil 3D |Company: Autodesk,Inc. |WEB Address: www.autodesk.com
 90
      129
 91
        0
280
     0
281
     0
  0
CLASS
  1
AEC_DISP_REP_COL_WORKPLANE_REF
  2
AeccuDbDispRepColWorkPlaneRef
  3
AeccParamPart100|Product Desc: AutoCAD Civil 3D |Company: Autodesk,Inc. |WEB Address: www.autodesk.com
 90
      129
 91
        0
280
     0
281
     0
  0
CLASS
  1
AECC_DISP_REP_GRAPHPROFILE_NETWORKPART
  2
AeccDbDispRepGraphProfileNetworkPart
  3
AeccNetwork100|Product Desc: AutoCAD Civil 3D |Company: Autodesk,Inc. |WEB Address: www.autodesk.com
 90
      129
 91
        0
280
     0
281
     0
  0
CLASS
  1
AECC_DISP_REP_INTERFERENCE_PART
  2
AeccDbDispRepInterference
  3
AeccNetwork100|Product Desc: AutoCAD Civil 3D |Company: Autodesk,Inc. |WEB Address: www.autodesk.com
 90
      129
 91
        0
280
     0
281
     0
  0
CLASS
  1
AECC_DISP_REP_INTERFERENCE_PART_SECTION
  2
AeccDbDispRepInterferenceCSV
  3
AeccNetwork100|Product Desc: AutoCAD Civil 3D |Company: Autodesk,Inc. |WEB Address: www.autodesk.com
 90
      129
 91
        0
280
     0
281
     0
  0
CLASS
  1
AECC_DISP_REP_INTERFERENCE_CHECK
  2
AeccDbDispRepInterferenceCheck
  3
AeccNetwork100|Product Desc: AutoCAD Civil 3D |Company: Autodesk,Inc. |WEB Address: www.autodesk.com
 90
      129
 91
        0
280
     0
281
     0
  0
CLASS
  1
AECC_DISP_REP_NETWORK
  2
AeccDbDispRepNetwork
  3
AeccNetwork100|Product Desc: AutoCAD Civil 3D |Company: Autodesk,Inc. |WEB Address: www.autodesk.com
 90
      129
 91
        0
280
     0
281
     0
  0
CLASS
  1
AECC_DISP_REP_PIPE
  2
AeccDbDispRepPipe
  3
AeccNetwork100|Product Desc: AutoCAD Civil 3D |Company: Autodesk,Inc. |WEB Address: www.autodesk.com
 90
      129
 91
        0
280
     0
281
     0
  0
CLASS
  1
AECC_DISP_REP_PIPE_CSV
  2
AeccDbDispRepPipeCSV
  3
AeccNetwork100|Product Desc: AutoCAD Civil 3D |Company: Autodesk,Inc. |WEB Address: www.autodesk.com
 90
      129
 91
        0
280
     0
281
     0
  0
CLASS
  1
AECC_DISP_REP_SECTION_PIPENETWORK
  2
AeccDbDispRepSectionPipeNetwork
  3
AeccNetwork100|Product Desc: AutoCAD Civil 3D |Company: Autodesk,Inc. |WEB Address: www.autodesk.com
 90
      129
 91
        0
280
     0
281
     0
  0
CLASS
  1
AECC_DISP_REP_STRUCTURE
  2
AeccDbDispRepStructure
  3
AeccNetwork100|Product Desc: AutoCAD Civil 3D |Company: Autodesk,Inc. |WEB Address: www.autodesk.com
 90
      129
 91
        0
280
     0
281
     0
  0
CLASS
  1
AECC_DISP_REP_STRUCTURE_CSV
  2
AeccDbDispRepStructureCSV
  3
AeccNetwork100|Product Desc: AutoCAD Civil 3D |Company: Autodesk,Inc. |WEB Address: www.autodesk.com
 90
      129
 91
        0
280
     0
281
     0
  0
CLASS
  1
AECC_DISP_REP_PIPE_TABLE
  2
AeccDbViewPipeAndStructureTable
  3
AeccNetwork100|Product Desc: AutoCAD Civil 3D |Company: Autodesk,Inc. |WEB Address: www.autodesk.com
 90
        0
 91
        0
280
     0
281
     0
  0
CLASS
  1
AECC_DISP_REP_PIPE_LABELING
  2
AeccDbViewPipeLabel
  3
AeccNetwork100|Product Desc: AutoCAD Civil 3D |Company: Autodesk,Inc. |WEB Address: www.autodesk.com
 90
        0
 91
        0
280
     0
281
     0
  0
CLASS
  1
AECC_DISP_REP_PIPE_PROFILE_LABELING
  2
AeccDbViewPipeProfileLabel
  3
AeccNetwork100|Product Desc: AutoCAD Civil 3D |Company: Autodesk,Inc. |WEB Address: www.autodesk.com
 90
        0
 91
        0
280
     0
281
     0
  0
CLASS
  1
AECC_DISP_REP_PIPE_SECTION_LABELING
  2
AeccDbViewPipeSectionLabel
  3
AeccNetwork100|Product Desc: AutoCAD Civil 3D |Company: Autodesk,Inc. |WEB Address: www.autodesk.com
 90
        0
 91
        0
280
     0
281
     0
  0
CLASS
  1
AECC_DISP_REP_SPANNING_PIPE_LABELING
  2
AeccDbViewSpanningPipeLabel
  3
AeccNetwork100|Product Desc: AutoCAD Civil 3D |Company: Autodesk,Inc. |WEB Address: www.autodesk.com
 90
        0
 91
        0
280
     0
281
     0
  0
CLASS
  1
AECC_DISP_REP_SPANNING_PIPE_PROFILE_LABELING
  2
AeccDbViewSpanningPipeProfileLabel
  3
AeccNetwork100|Product Desc: AutoCAD Civil 3D |Company: Autodesk,Inc. |WEB Address: www.autodesk.com
 90
        0
 91
        0
280
     0
281
     0
  0
CLASS
  1
AECC_DISP_REP_STRUCTURE_LABELING
  2
AeccDbViewStructureLabel
  3
AeccNetwork100|Product Desc: AutoCAD Civil 3D |Company: Autodesk,Inc. |WEB Address: www.autodesk.com
 90
        0
 91
        0
280
     0
281
     0
  0
CLASS
  1
AECC_DISP_REP_STRUCTURE_PROFILE_LABELING
  2
AeccDbViewStructureProfileLabel
  3
AeccNetwork100|Product Desc: AutoCAD Civil 3D |Company: Autodesk,Inc. |WEB Address: www.autodesk.com
 90
        0
 91
        0
280
     0
281
     0
  0
CLASS
  1
AECC_DISP_REP_STRUCTURE_SECTION_LABELING
  2
AeccDbViewStructureSectionLabel
  3
AeccNetwork100|Product Desc: AutoCAD Civil 3D |Company: Autodesk,Inc. |WEB Address: www.autodesk.com
 90
        0
 91
        0
280
     0
281
     0
  0
CLASS
  1
AECC_DISP_REP_AUTO_CORRIDOR_FEATURE_LINE
  2
AeccDbDispRepAutoCorridorFeatureLine
  3
AeccLand100|Product Desc: AutoCAD Civil 3D |Company: Autodesk,Inc. |WEB Address: www.autodesk.com
 90
        0
 91
        0
280
     0
281
     0
  0
CLASS
  1
AECC_DISP_REP_SECTION_CORRIDOR
  2
AeccDbDispRepSectionCorridor
  3
AeccRoadway100|Product Desc: AutoCAD Civil 3D |Company: Autodesk,Inc. |WEB Address: www.autodesk.com
 90
      129
 91
        0
280
     0
281
     0
  0
CLASS
  1
AECC_DISP_REP_ASSEMBLY
  2
AeccDbViewAssembly
  3
AeccRoadway100|Product Desc: AutoCAD Civil 3D |Company: Autodesk,Inc. |WEB Address: www.autodesk.com
 90
        0
 91
        0
280
     0
281
     0
  0
CLASS
  1
AECC_DISP_REP_CORRIDOR
  2
AeccDbViewCorridor
  3
AeccRoadway100|Product Desc: AutoCAD Civil 3D |Company: Autodesk,Inc. |WEB Address: www.autodesk.com
 90
        0
 91
        0
280
     0
281
     0
  0
CLASS
  1
AECC_DISP_REP_SUBASSEMBLY
  2
AeccDbViewSubassembly
  3
AeccRoadway100|Product Desc: AutoCAD Civil 3D |Company: Autodesk,Inc. |WEB Address: www.autodesk.com
 90
        0
 91
        0
280
     0
281
     0
  0
CLASS
  1
AECC_DISP_REP_SVFIGURE
  2
AeccDbViewSvFigure
  3
AeccSurvey100|Product Desc: AutoCAD Civil 3D |Company: Autodesk,Inc. |WEB Address: www.autodesk.com
 90
        0
 91
        0
280
     0
281
     0
  0
CLASS
  1
AECC_DISP_REP_SVFIGURE_CSV
  2
AeccDbViewSvFigureCSV
  3
AeccSurvey100|Product Desc: AutoCAD Civil 3D |Company: Autodesk,Inc. |WEB Address: www.autodesk.com
 90
        0
 91
        0
280
     0
281
     0
  0
CLASS
  1
AECC_DISP_REP_SVNETWORK
  2
AeccDbViewSvNetwork
  3
AeccSurvey100|Product Desc: AutoCAD Civil 3D |Company: Autodesk,Inc. |WEB Address: www.autodesk.com
 90
        0
 91
        0
280
     0
281
     0
  0
CLASS
  1
AECC_DISP_REP_MATCH_LINE
  2
AeccDbDispRepMatchLine
  3
AeccPlanProd100|Product Desc: AutoCAD Civil 3D |Company: Autodesk,Inc. |WEB Address: www.autodesk.com
 90
      129
 91
        0
280
     0
281
     0
  0
CLASS
  1
AECC_DISP_REP_VIEW_FRAME
  2
AeccDbDispRepViewFrame
  3
AeccPlanProd100|Product Desc: AutoCAD Civil 3D |Company: Autodesk,Inc. |WEB Address: www.autodesk.com
 90
      129
 91
        0
280
     0
281
     0
  0
CLASS
  1
AECC_DISP_REP_MATCHLINE_LABELING
  2
AeccDbViewMatchLineLabeling
  3
AeccPlanProd100|Product Desc: AutoCAD Civil 3D |Company: Autodesk,Inc. |WEB Address: www.autodesk.com
 90
        0
 91
        0
280
     0
281
     0
  0
CLASS
  1
AECC_DISP_REP_VIEWFRAME_LABELING
  2
AeccDbViewViewFrameLabeling
  3
AeccPlanProd100|Product Desc: AutoCAD Civil 3D |Company: Autodesk,Inc. |WEB Address: www.autodesk.com
 90
        0
 91
        0
280
     0
281
     0
  0
CLASS
  1
AEC_DISP_REP_ANCHOR_BUB_TO_GRID
  2
AecDbDispRepAnchorBubToGrid
  3
AecArchBase70|Product Desc: Autodesk Architectural Desktop 2007 |Company: Autodesk,Inc. |WEB Address: www.autodesk.com
 90
      129
 91
        0
280
     0
281
     0
  0
CLASS
  1
AEC_DISP_REP_ANCHOR_BUB_TO_GRID_MODEL
  2
AecDbDispRepAnchorBubToGridMdl
  3
AecArchBase70|Product Desc: Autodesk Architectural Desktop 2007 |Company: Autodesk,Inc. |WEB Address: www.autodesk.com
 90
      129
 91
        0
280
     0
281
     0
  0
CLASS
  1
AEC_DISP_REP_ANCHOR_BUB_TO_GRID_RCP
  2
AecDbDispRepAnchorBubToGridRcp
  3
AecArchBase70|Product Desc: Autodesk Architectural Desktop 2007 |Company: Autodesk,Inc. |WEB Address: www.autodesk.com
 90
      129
 91
        0
280
     0
281
     0
  0
CLASS
  1
AEC_DISP_REP_COLUMN_GRID
  2
AecDbDispRepColumnGrid
  3
AecArchBase70|Product Desc: Autodesk Architectural Desktop 2007 |Company: Autodesk,Inc. |WEB Address: www.autodesk.com
 90
      129
 91
        0
280
     0
281
     0
  0
CLASS
  1
AEC_DISP_REP_COLUMN_GRID_MODEL
  2
AecDbDispRepColumnGridModel
  3
AecArchBase70|Product Desc: Autodesk Architectural Desktop 2007 |Company: Autodesk,Inc. |WEB Address: www.autodesk.com
 90
      129
 91
        0
280
     0
281
     0
  0
CLASS
  1
AEC_DISP_REP_COLUMN_GRID_RCP
  2
AecDbDispRepColumnGridRcp
  3
AecArchBase70|Product Desc: Autodesk Architectural Desktop 2007 |Company: Autodesk,Inc. |WEB Address: www.autodesk.com
 90
      129
 91
        0
280
     0
281
     0
  0
CLASS
  1
AECS_DISP_REP_MEMBER_ELEVATION_DESIGN
  2
AecsDbDispRepMemberElevationDesign
  3
AecArchBase70|Product Desc: Autodesk Architectural Desktop 2007 |Company: Autodesk,Inc. |WEB Address: www.autodesk.com
 90
      129
 91
        0
280
     0
281
     0
  0
CLASS
  1
AECS_DISP_PROPS_MEMBER_PROJECTED
  2
AecsDbDispPropsMemberProjected
  3
AecArchBase70|Product Desc: Autodesk Architectural Desktop 2007 |Company: Autodesk,Inc. |WEB Address: www.autodesk.com
 90
      129
 91
        0
280
     0
281
     0
  0
CLASS
  1
AECS_DISP_REP_MEMBER_ELEVATION_DETAIL
  2
AecsDbDispRepMemberElevationDetail
  3
AecArchBase70|Product Desc: Autodesk Architectural Desktop 2007 |Company: Autodesk,Inc. |WEB Address: www.autodesk.com
 90
      129
 91
        0
280
     0
281
     0
  0
CLASS
  1
AECS_DISP_REP_MEMBER_LOGICAL
  2
AecsDbDispRepMemberLogical
  3
AecArchBase70|Product Desc: Autodesk Architectural Desktop 2007 |Company: Autodesk,Inc. |WEB Address: www.autodesk.com
 90
      129
 91
        0
280
     0
281
     0
  0
CLASS
  1
AECS_DISP_PROPS_MEMBER_LOGICAL
  2
AecsDbDispPropsMemberLogical
  3
AecArchBase70|Product Desc: Autodesk Architectural Desktop 2007 |Company: Autodesk,Inc. |WEB Address: www.autodesk.com
 90
      129
 91
        0
280
     0
281
     0
  0
CLASS
  1
AECS_DISP_REP_MEMBER_MODEL_DESIGN
  2
AecsDbDispRepMemberModelDesign
  3
AecArchBase70|Product Desc: Autodesk Architectural Desktop 2007 |Company: Autodesk,Inc. |WEB Address: www.autodesk.com
 90
      129
 91
        0
280
     0
281
     0
  0
CLASS
  1
AECS_DISP_PROPS_MEMBER
  2
AecsDbDispPropsMember
  3
AecArchBase70|Product Desc: Autodesk Architectural Desktop 2007 |Company: Autodesk,Inc. |WEB Address: www.autodesk.com
 90
      129
 91
        0
280
     0
281
     0
  0
CLASS
  1
AECS_DISP_REP_MEMBER_MODEL_DETAIL
  2
AecsDbDispRepMemberModelDetail
  3
AecArchBase70|Product Desc: Autodesk Architectural Desktop 2007 |Company: Autodesk,Inc. |WEB Address: www.autodesk.com
 90
      129
 91
        0
280
     0
281
     0
  0
CLASS
  1
AECS_DISP_REP_MEMBER_PLAN_DESIGN
  2
AecsDbDispRepMemberPlanDesign
  3
AecArchBase70|Product Desc: Autodesk Architectural Desktop 2007 |Company: Autodesk,Inc. |WEB Address: www.autodesk.com
 90
      129
 91
        0
280
     0
281
     0
  0
CLASS
  1
AECS_DISP_PROPS_MEMBER_PLAN
  2
AecsDbDispPropsMemberPlan
  3
AecArchBase70|Product Desc: Autodesk Architectural Desktop 2007 |Company: Autodesk,Inc. |WEB Address: www.autodesk.com
 90
      129
 91
        0
280
     0
281
     0
  0
CLASS
  1
AECS_DISP_REP_MEMBER_PLAN_DETAIL
  2
AecsDbDispRepMemberPlanDetail
  3
AecArchBase70|Product Desc: Autodesk Architectural Desktop 2007 |Company: Autodesk,Inc. |WEB Address: www.autodesk.com
 90
      129
 91
        0
280
     0
281
     0
  0
CLASS
  1
AECS_DISP_REP_MEMBER_PLAN_SKETCH
  2
AecsDbDispRepMemberPlanSketch
  3
AecArchBase70|Product Desc: Autodesk Architectural Desktop 2007 |Company: Autodesk,Inc. |WEB Address: www.autodesk.com
 90
      129
 91
        0
280
     0
281
     0
  0
CLASS
  1
AECS_DISP_PROPS_MEMBER_PLAN_SKETCH
  2
AecsDbDispPropsMemberPlanSketch
  3
AecArchBase70|Product Desc: Autodesk Architectural Desktop 2007 |Company: Autodesk,Inc. |WEB Address: www.autodesk.com
 90
      129
 91
        0
280
     0
281
     0
  0
CLASS
  1
AEC_AECDBDISPREPBDGELEVLINEPLAN100
  2
AecDbDispRepBdgElevLinePlan100
  3
AecArchBase70|Product Desc: Autodesk Architectural Desktop 2007 |Company: Autodesk,Inc. |WEB Address: www.autodesk.com
 90
      129
 91
        0
280
     0
281
     0
  0
CLASS
  1
AEC_AECDBDISPREPBDGSECTIONLINEPLAN100
  2
AecDbDispRepBdgSectionLinePlan100
  3
AecArchBase70|Product Desc: Autodesk Architectural Desktop 2007 |Company: Autodesk,Inc. |WEB Address: www.autodesk.com
 90
      129
 91
        0
280
     0
281
     0
  0
CLASS
  1
AEC_AECDBDISPREPCEILINGGRIDPLAN100
  2
AecDbDispRepCeilingGridPlan100
  3
AecArchBase70|Product Desc: Autodesk Architectural Desktop 2007 |Company: Autodesk,Inc. |WEB Address: www.autodesk.com
 90
      129
 91
        0
280
     0
281
     0
  0
CLASS
  1
AEC_AECDBDISPREPCOLUMNGRIDPLAN100
  2
AecDbDispRepColumnGridPlan100
  3
AecArchBase70|Product Desc: Autodesk Architectural Desktop 2007 |Company: Autodesk,Inc. |WEB Address: www.autodesk.com
 90
      129
 91
        0
280
     0
281
     0
  0
CLASS
  1
AEC_AECDBDISPREPCURTAINWALLLAYOUTPLAN100
  2
AecDbDispRepCurtainWallLayoutPlan100
  3
AecArchBase70|Product Desc: Autodesk Architectural Desktop 2007 |Company: Autodesk,Inc. |WEB Address: www.autodesk.com
 90
      129
 91
        0
280
     0
281
     0
  0
CLASS
  1
AEC_AECDBDISPREPCURTAINWALLUNITPLAN100
  2
AecDbDispRepCurtainWallUnitPlan100
  3
AecArchBase70|Product Desc: Autodesk Architectural Desktop 2007 |Company: Autodesk,Inc. |WEB Address: www.autodesk.com
 90
      129
 91
        0
280
     0
281
     0
  0
CLASS
  1
AEC_AECDBDISPREPMVBLOCKREFPLAN100
  2
AecDbDispRepMvBlockRefPlan100
  3
AecArchBase70|Product Desc: Autodesk Architectural Desktop 2007 |Company: Autodesk,Inc. |WEB Address: www.autodesk.com
 90
      129
 91
        0
280
     0
281
     0
  0
CLASS
  1
AEC_AECDBDISPREPROOFPLAN100
  2
AecDbDispRepRoofPlan100
  3
AecArchBase70|Product Desc: Autodesk Architectural Desktop 2007 |Company: Autodesk,Inc. |WEB Address: www.autodesk.com
 90
      129
 91
        0
280
     0
281
     0
  0
CLASS
  1
AEC_AECDBDISPREPROOFSLABPLAN100
  2
AecDbDispRepRoofSlabPlan100
  3
AecArchBase70|Product Desc: Autodesk Architectural Desktop 2007 |Company: Autodesk,Inc. |WEB Address: www.autodesk.com
 90
      129
 91
        0
280
     0
281
     0
  0
CLASS
  1
AEC_AECDBDISPREPSLABPLAN100
  2
AecDbDispRepSlabPlan100
  3
AecArchBase70|Product Desc: Autodesk Architectural Desktop 2007 |Company: Autodesk,Inc. |WEB Address: www.autodesk.com
 90
      129
 91
        0
280
     0
281
     0
  0
CLASS
  1
AEC_AECDBDISPREPSPACEPLAN100
  2
AecDbDispRepSpacePlan100
  3
AecArchBase70|Product Desc: Autodesk Architectural Desktop 2007 |Company: Autodesk,Inc. |WEB Address: www.autodesk.com
 90
      129
 91
        0
280
     0
281
     0
  0
CLASS
  1
AEC_AECDBDISPREPWALLPLAN100
  2
AecDbDispRepWallPlan100
  3
AecArchBase70|Product Desc: Autodesk Architectural Desktop 2007 |Company: Autodesk,Inc. |WEB Address: www.autodesk.com
 90
      129
 91
        0
280
     0
281
     0
  0
CLASS
  1
AEC_AECDBDISPREPWINDOWASSEMBLYPLAN100
  2
AecDbDispRepWindowAssemblyPlan100
  3
AecArchBase70|Product Desc: Autodesk Architectural Desktop 2007 |Company: Autodesk,Inc. |WEB Address: www.autodesk.com
 90
      129
 91
        0
280
     0
281
     0
  0
CLASS
  1
AEC_AECDBDISPREPZONE100
  2
AecDbDispRepZonePlan100
  3
AecArchBase70|Product Desc: Autodesk Architectural Desktop 2007 |Company: Autodesk,Inc. |WEB Address: www.autodesk.com
 90
      129
 91
        0
280
     0
281
     0
  0
CLASS
  1
AEC_AECDBDISPREPBDGELEVLINEPLAN50
  2
AecDbDispRepBdgElevLinePlan50
  3
AecArchBase70|Product Desc: Autodesk Architectural Desktop 2007 |Company: Autodesk,Inc. |WEB Address: www.autodesk.com
 90
      129
 91
        0
280
     0
281
     0
  0
CLASS
  1
AEC_AECDBDISPREPBDGSECTIONLINEPLAN50
  2
AecDbDispRepBdgSectionLinePlan50
  3
AecArchBase70|Product Desc: Autodesk Architectural Desktop 2007 |Company: Autodesk,Inc. |WEB Address: www.autodesk.com
 90
      129
 91
        0
280
     0
281
     0
  0
CLASS
  1
AEC_AECDBDISPREPCEILINGGRIDPLAN50
  2
AecDbDispRepCeilingGridPlan50
  3
AecArchBase70|Product Desc: Autodesk Architectural Desktop 2007 |Company: Autodesk,Inc. |WEB Address: www.autodesk.com
 90
      129
 91
        0
280
     0
281
     0
  0
CLASS
  1
AEC_AECDBDISPREPCOLUMNGRIDPLAN50
  2
AecDbDispRepColumnGridPlan50
  3
AecArchBase70|Product Desc: Autodesk Architectural Desktop 2007 |Company: Autodesk,Inc. |WEB Address: www.autodesk.com
 90
      129
 91
        0
280
     0
281
     0
  0
CLASS
  1
AEC_AECDBDISPREPCURTAINWALLLAYOUTPLAN50
  2
AecDbDispRepCurtainWallLayoutPlan50
  3
AecArchBase70|Product Desc: Autodesk Architectural Desktop 2007 |Company: Autodesk,Inc. |WEB Address: www.autodesk.com
 90
      129
 91
        0
280
     0
281
     0
  0
CLASS
  1
AEC_AECDBDISPREPCURTAINWALLUNITPLAN50
  2
AecDbDispRepCurtainWallUnitPlan50
  3
AecArchBase70|Product Desc: Autodesk Architectural Desktop 2007 |Company: Autodesk,Inc. |WEB Address: www.autodesk.com
 90
      129
 91
        0
280
     0
281
     0
  0
CLASS
  1
AEC_AECDBDISPREPMVBLOCKREFPLAN50
  2
AecDbDispRepMvBlockRefPlan50
  3
AecArchBase70|Product Desc: Autodesk Architectural Desktop 2007 |Company: Autodesk,Inc. |WEB Address: www.autodesk.com
 90
      129
 91
        0
280
     0
281
     0
  0
CLASS
  1
AEC_AECDBDISPREPROOFPLAN50
  2
AecDbDispRepRoofPlan50
  3
AecArchBase70|Product Desc: Autodesk Architectural Desktop 2007 |Company: Autodesk,Inc. |WEB Address: www.autodesk.com
 90
      129
 91
        0
280
     0
281
     0
  0
CLASS
  1
AEC_AECDBDISPREPROOFSLABPLAN50
  2
AecDbDispRepRoofSlabPlan50
  3
AecArchBase70|Product Desc: Autodesk Architectural Desktop 2007 |Company: Autodesk,Inc. |WEB Address: www.autodesk.com
 90
      129
 91
        0
280
     0
281
     0
  0
CLASS
  1
AEC_AECDBDISPREPSLABPLAN50
  2
AecDbDispRepSlabPlan50
  3
AecArchBase70|Product Desc: Autodesk Architectural Desktop 2007 |Company: Autodesk,Inc. |WEB Address: www.autodesk.com
 90
      129
 91
        0
280
     0
281
     0
  0
CLASS
  1
AEC_AECDBDISPREPSPACEPLAN50
  2
AecDbDispRepSpacePlan50
  3
AecArchBase70|Product Desc: Autodesk Architectural Desktop 2007 |Company: Autodesk,Inc. |WEB Address: www.autodesk.com
 90
      129
 91
        0
280
     0
281
     0
  0
CLASS
  1
AEC_AECDBDISPREPWALLPLAN50
  2
AecDbDispRepWallPlan50
  3
AecArchBase70|Product Desc: Autodesk Architectural Desktop 2007 |Company: Autodesk,Inc. |WEB Address: www.autodesk.com
 90
      129
 91
        0
280
     0
281
     0
  0
CLASS
  1
AEC_AECDBDISPREPWINDOWASSEMBLYPLAN50
  2
AecDbDispRepWindowAssemblyPlan50
  3
AecArchBase70|Product Desc: Autodesk Architectural Desktop 2007 |Company: Autodesk,Inc. |WEB Address: www.autodesk.com
 90
      129
 91
        0
280
     0
281
     0
  0
CLASS
  1
AEC_AECDBDISPREPZONE50
  2
AecDbDispRepZonePlan50
  3
AecArchBase70|Product Desc: Autodesk Architectural Desktop 2007 |Company: Autodesk,Inc. |WEB Address: www.autodesk.com
 90
      129
 91
        0
280
     0
281
     0
  0
CLASS
  1
AEC_DB_DISP_REP_DIM_GROUP_PLAN100
  2
AecDbDispRepDimGroupPlan100
  3
AecArchBase70|Product Desc: Autodesk Architectural Desktop 2007 |Company: Autodesk,Inc. |WEB Address: www.autodesk.com
 90
      129
 91
        0
280
     0
281
     0
  0
CLASS
  1
AEC_DISP_PROPS_DIM
  2
AecDbDispPropsDimGroup
  3
AecArchBase70|Product Desc: Autodesk Architectural Desktop 2007 |Company: Autodesk,Inc. |WEB Address: www.autodesk.com
 90
      129
 91
        0
280
     0
281
     0
  0
CLASS
  1
AEC_DB_DISP_REP_DIM_GROUP_PLAN50
  2
AecDbDispRepDimGroupPlan50
  3
AecArchBase70|Product Desc: Autodesk Architectural Desktop 2007 |Company: Autodesk,Inc. |WEB Address: www.autodesk.com
 90
      129
 91
        0
280
     0
281
     0
  0
CLASS
  1
AEC_DB_DISP_REP_DIM_GROUP_PLAN
  2
AecDbDispRepDimGroupPlan
  3
AecArchBase70|Product Desc: Autodesk Architectural Desktop 2007 |Company: Autodesk,Inc. |WEB Address: www.autodesk.com
 90
      129
 91
        0
280
     0
281
     0
  0
CLASS
  1
AEC_DISP_REP_DOOR_PLAN_50
  2
AecDbDispRepDoorPlan50
  3
AecArchBase70|Product Desc: Autodesk Architectural Desktop 2007 |Company: Autodesk,Inc. |WEB Address: www.autodesk.com
 90
      129
 91
        0
280
     0
281
     0
  0
CLASS
  1
AEC_DISP_PROPS_DOOR_PLAN_50
  2
AecDbDispPropsDoorPlan50
  3
AecArchBase70|Product Desc: Autodesk Architectural Desktop 2007 |Company: Autodesk,Inc. |WEB Address: www.autodesk.com
 90
      129
 91
        0
280
     0
281
     0
  0
CLASS
  1
AEC_DISP_REP_DOOR_PLAN_HEKTO
  2
AecDbDispRepDoorPlanHekto
  3
AecArchBase70|Product Desc: Autodesk Architectural Desktop 2007 |Company: Autodesk,Inc. |WEB Address: www.autodesk.com
 90
      129
 91
        0
280
     0
281
     0
  0
CLASS
  1
AEC_DISP_PROPS_DOOR_PLAN_100
  2
AecDbDispPropsDoorPlan100
  3
AecArchBase70|Product Desc: Autodesk Architectural Desktop 2007 |Company: Autodesk,Inc. |WEB Address: www.autodesk.com
 90
      129
 91
        0
280
     0
281
     0
  0
CLASS
  1
AEC_DISP_REP_DOOR_THRESHOLD_SYMBOL_PLAN
  2
AecDbDispRepDoorThresholdSymbolPlan
  3
AecArchBase70|Product Desc: Autodesk Architectural Desktop 2007 |Company: Autodesk,Inc. |WEB Address: www.autodesk.com
 90
      129
 91
        0
280
     0
281
     0
  0
CLASS
  1
AEC_DISP_PROPS_DOOR_THRESHOLD_SYMBOL_PLAN
  2
AecDbDispPropsDoorThresholdSymbolPlan
  3
AecArchBase70|Product Desc: Autodesk Architectural Desktop 2007 |Company: Autodesk,Inc. |WEB Address: www.autodesk.com
 90
      129
 91
        0
280
     0
281
     0
  0
CLASS
  1
AEC_DISPREPAECDBDISPREPMASSELEMPLAN100
  2
AecDbDispRepMassElemPlan100
  3
AecArchBase70|Product Desc: Autodesk Architectural Desktop 2007 |Company: Autodesk,Inc. |WEB Address: www.autodesk.com
 90
      129
 91
        0
280
     0
281
     0
  0
CLASS
  1
AEC_DISPROPSMASSELEMPLANCOMMON
  2
AecDbDispPropsMassElemPlanCommon
  3
AecArchBase70|Product Desc: Autodesk Architectural Desktop 2007 |Company: Autodesk,Inc. |WEB Address: www.autodesk.com
 90
      129
 91
        0
280
     0
281
     0
  0
CLASS
  1
AEC_DISPREPAECDBDISPREPMASSELEMPLAN50
  2
AecDbDispRepMassElemPlan50
  3
AecArchBase70|Product Desc: Autodesk Architectural Desktop 2007 |Company: Autodesk,Inc. |WEB Address: www.autodesk.com
 90
      129
 91
        0
280
     0
281
     0
  0
CLASS
  1
AEC_DISPREPAECDBDISPREPMASSGROUPPLAN100
  2
AecDbDispRepMassGroupPlan100
  3
AecArchBase70|Product Desc: Autodesk Architectural Desktop 2007 |Company: Autodesk,Inc. |WEB Address: www.autodesk.com
 90
      129
 91
        0
280
     0
281
     0
  0
CLASS
  1
AEC_DISPROPSMASSGROUPPLANCOMMON
  2
AecDbDispPropsMassGroupPlanCommon
  3
AecArchBase70|Product Desc: Autodesk Architectural Desktop 2007 |Company: Autodesk,Inc. |WEB Address: www.autodesk.com
 90
      129
 91
        0
280
     0
281
     0
  0
CLASS
  1
AEC_DISPREPAECDBDISPREPMASSGROUPPLAN50
  2
AecDbDispRepMassGroupPlan50
  3
AecArchBase70|Product Desc: Autodesk Architectural Desktop 2007 |Company: Autodesk,Inc. |WEB Address: www.autodesk.com
 90
      129
 91
        0
280
     0
281
     0
  0
CLASS
  1
AEC_DISPREPAECDBDISPREPOPENINGPLAN100
  2
AecDbDispRepOpeningPlan100
  3
AecArchBase70|Product Desc: Autodesk Architectural Desktop 2007 |Company: Autodesk,Inc. |WEB Address: www.autodesk.com
 90
      129
 91
        0
280
     0
281
     0
  0
CLASS
  1
AEC_DISPROPSOPENINGPLANCOMMONHATCHED
  2
AecDbDispPropsOpeningPlanCommonHatched
  3
AecArchBase70|Product Desc: Autodesk Architectural Desktop 2007 |Company: Autodesk,Inc. |WEB Address: www.autodesk.com
 90
      129
 91
        0
280
     0
281
     0
  0
CLASS
  1
AEC_DISPREPAECDBDISPREPOPENINGPLAN50
  2
AecDbDispRepOpeningPlan50
  3
AecArchBase70|Product Desc: Autodesk Architectural Desktop 2007 |Company: Autodesk,Inc. |WEB Address: www.autodesk.com
 90
      129
 91
        0
280
     0
281
     0
  0
CLASS
  1
AEC_DISPREPAECDBDISPREPOPENINGPLANREFLECTED
  2
AecDbDispRepOpeningPlanReflected
  3
AecArchBase70|Product Desc: Autodesk Architectural Desktop 2007 |Company: Autodesk,Inc. |WEB Address: www.autodesk.com
 90
      129
 91
        0
280
     0
281
     0
  0
CLASS
  1
AEC_DISPROPSOPENINGPLANCOMMON
  2
AecDbDispPropsOpeningPlanCommon
  3
AecArchBase70|Product Desc: Autodesk Architectural Desktop 2007 |Company: Autodesk,Inc. |WEB Address: www.autodesk.com
 90
      129
 91
        0
280
     0
281
     0
  0
CLASS
  1
AEC_DISPREPAECDBDISPREPOPENINGSILLPLAN
  2
AecDbDispRepOpeningSillPlan
  3
AecArchBase70|Product Desc: Autodesk Architectural Desktop 2007 |Company: Autodesk,Inc. |WEB Address: www.autodesk.com
 90
      129
 91
        0
280
     0
281
     0
  0
CLASS
  1
AEC_DISPROPSOPENINGSILLPLAN
  2
AecDbDispPropsOpeningSillPlan
  3
AecArchBase70|Product Desc: Autodesk Architectural Desktop 2007 |Company: Autodesk,Inc. |WEB Address: www.autodesk.com
 90
      129
 91
        0
280
     0
281
     0
  0
CLASS
  1
AEC_DISP_REP_RAILING_PLAN_100
  2
AecDbDispRepRailingPlan100
  3
AecArchBase70|Product Desc: Autodesk Architectural Desktop 2007 |Company: Autodesk,Inc. |WEB Address: www.autodesk.com
 90
      129
 91
        0
280
     0
281
     0
  0
CLASS
  1
AEC_DISP_ROPS_RAILING_PLAN_100
  2
AecDbDispPropsRailingPlan100
  3
AecArchBase70|Product Desc: Autodesk Architectural Desktop 2007 |Company: Autodesk,Inc. |WEB Address: www.autodesk.com
 90
      129
 91
        0
280
     0
281
     0
  0
CLASS
  1
AEC_DISP_REP_RAILING_PLAN_50
  2
AecDbDispRepRailingPlan50
  3
AecArchBase70|Product Desc: Autodesk Architectural Desktop 2007 |Company: Autodesk,Inc. |WEB Address: www.autodesk.com
 90
      129
 91
        0
280
     0
281
     0
  0
CLASS
  1
AEC_DISP_ROPS_RAILING_PLAN_50
  2
AecDbDispPropsRailingPlan50
  3
AecArchBase70|Product Desc: Autodesk Architectural Desktop 2007 |Company: Autodesk,Inc. |WEB Address: www.autodesk.com
 90
      129
 91
        0
280
     0
281
     0
  0
CLASS
  1
AEC_DISP_REP_STAIR_PLAN_100
  2
AecDbDispRepStairPlan100
  3
AecArchBase70|Product Desc: Autodesk Architectural Desktop 2007 |Company: Autodesk,Inc. |WEB Address: www.autodesk.com
 90
      129
 91
        0
280
     0
281
     0
  0
CLASS
  1
AEC_DISP_ROPS_STAIR_PLAN_100
  2
AecDbDispPropsStairPlan100
  3
AecArchBase70|Product Desc: Autodesk Architectural Desktop 2007 |Company: Autodesk,Inc. |WEB Address: www.autodesk.com
 90
      129
 91
        0
280
     0
281
     0
  0
CLASS
  1
AEC_DISP_REP_STAIR_PLAN_50
  2
AecDbDispRepStairPlan50
  3
AecArchBase70|Product Desc: Autodesk Architectural Desktop 2007 |Company: Autodesk,Inc. |WEB Address: www.autodesk.com
 90
      129
 91
        0
280
     0
281
     0
  0
CLASS
  1
AEC_DISP_ROPS_STAIR_PLAN_50
  2
AecDbDispPropsStairPlan50
  3
AecArchBase70|Product Desc: Autodesk Architectural Desktop 2007 |Company: Autodesk,Inc. |WEB Address: www.autodesk.com
 90
      129
 91
        0
280
     0
281
     0
  0
CLASS
  1
AEC_DISP_REP_WINDOW_PLAN_100
  2
AecDbDispRepWindowPlan100
  3
AecArchBase70|Product Desc: Autodesk Architectural Desktop 2007 |Company: Autodesk,Inc. |WEB Address: www.autodesk.com
 90
      129
 91
        0
280
     0
281
     0
  0
CLASS
  1
AEC_DISP_PROPS_WINDOW_PLAN_100
  2
AecDbDispPropsWindowPlan100
  3
AecArchBase70|Product Desc: Autodesk Architectural Desktop 2007 |Company: Autodesk,Inc. |WEB Address: www.autodesk.com
 90
      129
 91
        0
280
     0
281
     0
  0
CLASS
  1
AEC_DISP_REP_WINDOW_PLAN_50
  2
AecDbDispRepWindowPlan50
  3
AecArchBase70|Product Desc: Autodesk Architectural Desktop 2007 |Company: Autodesk,Inc. |WEB Address: www.autodesk.com
 90
      129
 91
        0
280
     0
281
     0
  0
CLASS
  1
AEC_DISP_PROPS_WINDOW_PLAN_50
  2
AecDbDispPropsWindowPlan50
  3
AecArchBase70|Product Desc: Autodesk Architectural Desktop 2007 |Company: Autodesk,Inc. |WEB Address: www.autodesk.com
 90
      129
 91
        0
280
     0
281
     0
  0
CLASS
  1
AECC_CONTOURVIEW
  2
AeccDbViewContour
  3
AecCivilBase|Product Desc: AutoCAD Civil 3D |Company: Autodesk,Inc. |WEB Address: www.autodesk.com
 90
     1024
 91
        0
280
     0
281
     0
  0
CLASS
  1
AECC_POINTVIEW
  2
AeccDbViewPoint
  3
AecCivilBase|Product Desc: AutoCAD Civil 3D |Company: Autodesk,Inc. |WEB Address: www.autodesk.com
 90
     1025
 91
        0
280
     0
281
     0
  0
CLASS
  1
AECC_GRADEVIEW
  2
AeccViewGrade
  3
AecCivilBase|Product Desc: AutoCAD Civil 3D |Company: Autodesk,Inc. |WEB Address: www.autodesk.com
 90
     1025
 91
        0
280
     0
281
     0
  0
CLASS
  1
AEC_CVSECTIONVIEW
  2
AecCvViewSection
  3
AecCivilBase|Product Desc: AutoCAD Civil 3D |Company: Autodesk,Inc. |WEB Address: www.autodesk.com
 90
     1024
 91
        0
280
     0
281
     0
  0
CLASS
  1
AEC_DISP_REP_SET
  2
AecDbDispRepSet
  3
AecBase70|Product Desc: Autodesk Architectural Desktop 2007 |Company: Autodesk,Inc. |WEB Address: www.autodesk.com
 90
      129
 91
        0
280
     0
281
     0
  0
CLASS
  1
AEC_DISP_REP_CONFIG
  2
AecDbDispRepConfig
  3
AecBase70|Product Desc: Autodesk Architectural Desktop 2007 |Company: Autodesk,Inc. |WEB Address: www.autodesk.com
 90
      129
 91
        0
280
     0
281
     0
  0
CLASS
  1
DMMAP
  2
AcMapDMMap
  3
AcMapDisplayManagement
 90
     1024
 91
        0
280
     0
281
     0
  0
CLASS
  1
DMBASEELEMENT
  2
AcMapDMBaseElement
  3
AcMapDisplayManagement
 90
     1024
 91
        0
280
     0
281
     0
  0
CLASS
  1
DMDEFAULTSTYLE
  2
AcMapDMDefaultStyle
  3
AcMapDisplayManagement
 90
     1024
 91
        0
280
     0
281
     0
  0
CLASS
  1
DMSTYLEREFERENCE
  2
AcMapDMStyleReference
  3
AcMapDisplayManagement
 90
     1024
 91
        0
280
     0
281
     0
  0
CLASS
  1
DMSURROGATESTYLESETS
  2
AcMapDMSurrogateStyleSets
  3
AcMapDisplayManagement
 90
     1153
 91
        0
280
     0
281
     0
  0
CLASS
  1
SORTENTSTABLE
  2
AcDbSortentsTable
  3
ObjectDBX Classes
 90
        0
 91
        2
280
     0
281
     0
  0
CLASS
  1
DMSTYLIZEDENTITIESTABLE
  2
AcMapDMStylizedEntitiesTable
  3
AcMapDisplayManagement
 90
     1024
 91
        0
280
     0
281
     0
  0
CLASS
  1
MAPGWSUNDOOBJECT
  2
AcMapGWSUndoRecorder
  3
AcMapFeatureSourceManager
 90
     1025
 91
        0
280
     0
281
     0
  0
CLASS
  1
AECC_CLASS_NODE
  2
AeccDbClassNode
  3
AeccLand100|Product Desc: AutoCAD Civil 3D |Company: Autodesk,Inc. |WEB Address: www.autodesk.com
 90
      129
 91
        0
280
     0
281
     0
  0
CLASS
  1
AECC_USER_DEFINED_ATTRIBUTE_CLASSIFICATION
  2
AeccDbUserDefinedAttributeClassification
  3
AeccLand100|Product Desc: AutoCAD Civil 3D |Company: Autodesk,Inc. |WEB Address: www.autodesk.com
 90
      129
 91
        0
280
     0
281
     0
  0
CLASS
  1
AECC_TAG_MANAGER
  2
AeccDbTagManager
  3
AeccLand100|Product Desc: AutoCAD Civil 3D |Company: Autodesk,Inc. |WEB Address: www.autodesk.com
 90
     3071
 91
        0
280
     0
281
     0
  0
CLASS
  1
AECC_PROFILE_VIEW_BAND_STYLE_SET
  2
AeccDbGraphProfileBandStyleSet
  3
AeccLand100|Product Desc: AutoCAD Civil 3D |Company: Autodesk,Inc. |WEB Address: www.autodesk.com
 90
      129
 91
        0
280
     0
281
     0
  0
CLASS
  1
AECC_PROFILE_VIEW_DATA_BAND_STYLE
  2
AeccDbGraphStyleProfileDataBands
  3
AeccLand100|Product Desc: AutoCAD Civil 3D |Company: Autodesk,Inc. |WEB Address: www.autodesk.com
 90
      129
 91
        0
280
     0
281
     0
  0
CLASS
  1
AECC_LABEL_RADIAL_LINE_STYLE
  2
AeccDbLabelStyleRadialLine
  3
AeccLand100|Product Desc: AutoCAD Civil 3D |Company: Autodesk,Inc. |WEB Address: www.autodesk.com
 90
      129
 91
        0
280
     0
281
     0
  0
CLASS
  1
AECC_PROFILE_VIEW_HORIZONTAL_GEOMETRY_BAND_STYLE
  2
AeccDbGraphStyleHorGeometryBands
  3
AeccLand100|Product Desc: AutoCAD Civil 3D |Company: Autodesk,Inc. |WEB Address: www.autodesk.com
 90
      129
 91
        0
280
     0
281
     0
  0
CLASS
  1
AECC_PROFILE_VIEW_VERTICAL_GEOMETRY_BAND_STYLE
  2
AeccDbGraphStyleVertGeometryBands
  3
AeccLand100|Product Desc: AutoCAD Civil 3D |Company: Autodesk,Inc. |WEB Address: www.autodesk.com
 90
      129
 91
        0
280
     0
281
     0
  0
CLASS
  1
AECC_PROFILE_VIEW_SUPERELEVATION_DIAGRAM_BAND_STYLE
  2
AeccDbGraphStyleSuperElevationBands
  3
AeccLand100|Product Desc: AutoCAD Civil 3D |Company: Autodesk,Inc. |WEB Address: www.autodesk.com
 90
      129
 91
        0
280
     0
281
     0
  0
CLASS
  1
AECC_PROFILE_VIEW_SECTIONAL_DATA_BAND_STYLE
  2
AeccDbGraphStyleSectionalDataBands
  3
AeccLand100|Product Desc: AutoCAD Civil 3D |Company: Autodesk,Inc. |WEB Address: www.autodesk.com
 90
      129
 91
        0
280
     0
281
     0
  0
CLASS
  1
AECC_SECTION_VIEW_BAND_STYLE_SET
  2
AeccDbGraphSectionBandStyleSet
  3
AeccLand100|Product Desc: AutoCAD Civil 3D |Company: Autodesk,Inc. |WEB Address: www.autodesk.com
 90
      129
 91
        0
280
     0
281
     0
  0
CLASS
  1
AECC_SECTION_VIEW_DATA_BAND_STYLE
  2
AeccDbGraphStyleSectionDataBands
  3
AeccLand100|Product Desc: AutoCAD Civil 3D |Company: Autodesk,Inc. |WEB Address: www.autodesk.com
 90
      129
 91
        0
280
     0
281
     0
  0
CLASS
  1
AECC_SECTION_VIEW_ROAD_SURFACE_BAND_STYLE
  2
AeccDbGraphStyleSectionRoadSurfaceBands
  3
AeccLand100|Product Desc: AutoCAD Civil 3D |Company: Autodesk,Inc. |WEB Address: www.autodesk.com
 90
      129
 91
        0
280
     0
281
     0
  0
CLASS
  1
AECC_GRADING_GROUP
  2
AeccDbGradingGroup
  3
AeccLand100|Product Desc: AutoCAD Civil 3D |Company: Autodesk,Inc. |WEB Address: www.autodesk.com
 90
      129
 91
        0
280
     0
281
     0
  0
CLASS
  1
AECC_GRADING_CRITERIA
  2
AeccDbGradingCriteria
  3
AeccLand100|Product Desc: AutoCAD Civil 3D |Company: Autodesk,Inc. |WEB Address: www.autodesk.com
 90
      129
 91
        0
280
     0
281
     0
  0
CLASS
  1
AECC_SLOPE_PATTERN_STYLE
  2
AeccDbSlopePatternStyle
  3
AeccLand100|Product Desc: AutoCAD Civil 3D |Company: Autodesk,Inc. |WEB Address: www.autodesk.com
 90
      129
 91
        0
280
     0
281
     0
  0
CLASS
  1
AECC_FEATURELINE_STYLE
  2
AeccDbFeatureLineStyle
  3
AeccLand100|Product Desc: AutoCAD Civil 3D |Company: Autodesk,Inc. |WEB Address: www.autodesk.com
 90
      129
 91
        0
280
     0
281
     0
  0
CLASS
  1
AECC_PARCEL_NODE
  2
AeccDbParcelNode
  3
AeccLand100|Product Desc: AutoCAD Civil 3D |Company: Autodesk,Inc. |WEB Address: www.autodesk.com
 90
      129
 91
        0
280
     0
281
     0
  0
CLASS
  1
AECC_ALIGNMENT_PARCEL_NODE
  2
AeccDbAlignmentParcelNode
  3
AeccLand100|Product Desc: AutoCAD Civil 3D |Company: Autodesk,Inc. |WEB Address: www.autodesk.com
 90
      129
 91
        0
280
     0
281
     0
  0
CLASS
  1
AECC_FEATURE_STYLE
  2
AeccDbFeatureStyle
  3
AeccLand100|Product Desc: AutoCAD Civil 3D |Company: Autodesk,Inc. |WEB Address: www.autodesk.com
 90
      129
 91
        0
280
     0
281
     0
  0
CLASS
  1
AECC_FORMAT_MANAGER_OBJECT
  2
AeccDbFormatManagerObject
  3
AeccLand100|Product Desc: AutoCAD Civil 3D |Company: Autodesk,Inc. |WEB Address: www.autodesk.com
 90
      129
 91
        0
280
     0
281
     0
  0
CLASS
  1
AECC_MATERIAL_STYLE
  2
AeccDbMaterialStyle
  3
AeccLand100|Product Desc: AutoCAD Civil 3D |Company: Autodesk,Inc. |WEB Address: www.autodesk.com
 90
      129
 91
        0
280
     0
281
     0
  0
CLASS
  1
AECC_PROFILE_VIEW_PIPE_NETWORK_BAND_STYLE
  2
AeccDbGraphProfileStylePipeNetworkBand
  3
AeccNetwork100|Product Desc: AutoCAD Civil 3D |Company: Autodesk,Inc. |WEB Address: www.autodesk.com
 90
      129
 91
        0
280
     0
281
     0
  0
CLASS
  1
AECC_NETWORK_PART_CATALOG_DEF_NODE
  2
AeccDbNetworkCatalogDef
  3
AeccNetwork100|Product Desc: AutoCAD Civil 3D |Company: Autodesk,Inc. |WEB Address: www.autodesk.com
 90
      129
 91
        0
280
     0
281
     0
  0
CLASS
  1
AECC_ROADWAYSHAPE_STYLE
  2
AeccDbRoadwayShapeStyle
  3
AeccRoadway100|Product Desc: AutoCAD Civil 3D |Company: Autodesk,Inc. |WEB Address: www.autodesk.com
 90
      129
 91
        0
280
     0
281
     0
  0
CLASS
  1
AECC_ROADWAY_STYLE_SET
  2
AeccDbRoadwayStyleSet
  3
AeccRoadway100|Product Desc: AutoCAD Civil 3D |Company: Autodesk,Inc. |WEB Address: www.autodesk.com
 90
      129
 91
        0
280
     0
281
     0
  0
CLASS
  1
AECC_ROADWAYLINK_STYLE
  2
AeccDbRoadwayLinkStyle
  3
AeccRoadway100|Product Desc: AutoCAD Civil 3D |Company: Autodesk,Inc. |WEB Address: www.autodesk.com
 90
      129
 91
        0
280
     0
281
     0
  0
CLASS
  1
AECC_NETWORK_PART_DEF
  2
AeccDbNetworkPartDef
  3
AeccNetwork100|Product Desc: AutoCAD Civil 3D |Company: Autodesk,Inc. |WEB Address: www.autodesk.com
 90
      129
 91
        0
280
     0
281
     0
  0
CLASS
  1
AECC_STRUCTURE
  2
AeccDbStructure
  3
AeccNetwork100|Product Desc: AutoCAD Civil 3D |Company: Autodesk,Inc. |WEB Address: www.autodesk.com
 90
      893
 91
        0
280
     0
281
     1
  0
CLASS
  1
AEC_REFEDIT_STATUS_TRACKER
  2
AecDbRefEditStatusTracker
  3
AecArchBase70|Product Desc: Autodesk Architectural Desktop 2007 |Company: Autodesk,Inc. |WEB Address: www.autodesk.com
 90
      129
 91
        0
280
     0
281
     0
  0
CLASS
  1
AECC_LABEL_BLOCK_STYLE
  2
AeccDbLabelStyleBlock
  3
AeccLand100|Product Desc: AutoCAD Civil 3D |Company: Autodesk,Inc. |WEB Address: www.autodesk.com
 90
      129
 91
        0
280
     0
281
     0
  0
CLASS
  1
SOLID_BACKGROUND
  2
AcDbSolidBackground
  3
SCENEOE
 90
     4095
 91
        0
280
     0
281
     0
  0
CLASS
  1
WIPEOUT
  2
AcDbWipeout
  3
WipeOut|Product Desc: Object Enabler for WipeOut entity | Company: Autodesk, Inc. | WEB Address: www.autodesk.com
 90
     2175
 91
        0
280
     0
281
     1
  0
CLASS
  1
AECC_LABEL_TEXT_PROPFIELDOBJECT_STYLE
  2
AeccDbLabelStyleTextPropFieldObject
  3
AeccLand100|Product Desc: AutoCAD Civil 3D |Company: Autodesk,Inc. |WEB Address: www.autodesk.com
 90
      129
 91
        0
280
     0
281
     0
  0
CLASS
  1
AECC_USER_DEFINED_ATTRIBUTE
  2
AeccDbUserDefinedAttribute
  3
AeccLand100|Product Desc: AutoCAD Civil 3D |Company: Autodesk,Inc. |WEB Address: www.autodesk.com
 90
      129
 91
        0
280
     0
281
     0
  0
CLASS
  1
AECC_LABEL_TEXT_ITERATOR_STYLE
  2
AeccDbLabelStyleTextIterator
  3
AeccLand100|Product Desc: AutoCAD Civil 3D |Company: Autodesk,Inc. |WEB Address: www.autodesk.com
 90
      129
 91
        0
280
     0
281
     0
  0
CLASS
  1
AECC_NETWORK_PART_LIST
  2
AeccDbPartList
  3
AeccNetwork100|Product Desc: AutoCAD Civil 3D |Company: Autodesk,Inc. |WEB Address: www.autodesk.com
 90
      129
 91
        0
280
     0
281
     0
  0
CLASS
  1
AECC_NETWORK_PART_FAMILY_ITEM
  2
AeccDbPartFamilyItem
  3
AeccNetwork100|Product Desc: AutoCAD Civil 3D |Company: Autodesk,Inc. |WEB Address: www.autodesk.com
 90
      129
 91
        0
280
     0
281
     0
  0
CLASS
  1
AECC_PART_SIZE_FILTER
  2
AeccDbPartSizeFilter
  3
AeccNetwork100|Product Desc: AutoCAD Civil 3D |Company: Autodesk,Inc. |WEB Address: www.autodesk.com
 90
      129
 91
        0
280
     0
281
     0
  0
CLASS
  1
AECC_NAME_TEMPLATES_ROOT
  2
AeccDbNameTemplatesRoot
  3
AeccvBase100|Product Desc: AutoCAD Civil 3D |Company: Autodesk,Inc. |WEB Address: www.autodesk.com
 90
      129
 91
        0
280
     0
281
     0
  0
CLASS
  1
AECC_NAME_TEMPLATES_NODE
  2
AeccDbNameTemplatesNode
  3
AeccvBase100|Product Desc: AutoCAD Civil 3D |Company: Autodesk,Inc. |WEB Address: www.autodesk.com
 90
      129
 91
        0
280
     0
281
     0
  0
CLASS
  1
AECC_TREE_NODE_CLONE_HELPER
  2
AeccDbTreeNodeCloneHelper
  3
AeccvBase100|Product Desc: AutoCAD Civil 3D |Company: Autodesk,Inc. |WEB Address: www.autodesk.com
 90
      129
 91
        0
280
     0
281
     0
  0
CLASS
  1
AECC_TRANSIENTGLYPHS
  2
AeccDbTransientGlyphs
  3
AeccvBase60|Product Desc: AutoCAD Civil 3D |Company: Autodesk,Inc. |WEB Address: www.autodesk.com
 90
        0
 91
        0
280
     1
281
     1
  0
CLASS
  1
ACAD_EVALUATION_GRAPH
  2
AcDbEvalGraph
  3
ObjectDBX Classes
 90
     1153
 91
        0
280
     0
281
     0
  0
CLASS
  1
ACAECUSTOBJ
  2
AcAeEditorObj
  3
AcAeEditorObj
 90
     1024
 91
        0
280
     0
281
     0
  0
CLASS
  1
ACDB_DYNAMICBLOCKPURGEPREVENTER_VERSION
  2
AcDbDynamicBlockPurgePreventer
  3
ObjectDBX Classes
 90
     1153
 91
        0
280
     0
281
     0
  0
CLASS
  1
AECC_INTERSECTION_STYLE
  2
AeccDbIntersectionStyle
  3
AeccRoadway100|Product Desc: AutoCAD Civil 3D |Company: Autodesk,Inc. |WEB Address: www.autodesk.com
 90
      129
 91
        0
280
     0
281
     0
  0
CLASS
  1
AECC_BUILDING_SITE_STYLE
  2
AeccDbBuildingSiteStyle
  3
AeccBuildingSite100|Product Desc: AutoCAD Civil 3D |Company: Autodesk,Inc. |WEB Address: www.autodesk.com
 90
      129
 91
        0
280
     0
281
     0
  0
CLASS
  1
AECC_DISP_REP_BUILDINGUTIL_CONNECTOR
  2
AeccDbDispRepBSUtilConnector
  3
AeccBuildingSite100|Product Desc: AutoCAD Civil 3D |Company: Autodesk,Inc. |WEB Address: www.autodesk.com
 90
      893
 91
        0
280
     0
281
     0
  0
CLASS
  1
AECC_DISP_REP_BUILDINGSITE
  2
AeccDbDispRepBuildingSite
  3
AeccBuildingSite100|Product Desc: AutoCAD Civil 3D |Company: Autodesk,Inc. |WEB Address: www.autodesk.com
 90
      893
 91
        0
280
     0
281
     0
  0
CLASS
  1
AECC_DISP_REP_AUTO_FEATURE_LINE_PROFILE
  2
AeccDbDispRepAutoFeatureLineProfile
  3
AeccLand100|Product Desc: AutoCAD Civil 3D |Company: Autodesk,Inc. |WEB Address: www.autodesk.com
 90
        0
 91
        0
280
     0
281
     0
  0
CLASS
  1
AECC_DISP_REP_AUTO_FEATURE_LINE_SECTION
  2
AeccDbDispRepAutoFeatureLineSection
  3
AeccLand100|Product Desc: AutoCAD Civil 3D |Company: Autodesk,Inc. |WEB Address: www.autodesk.com
 90
        0
 91
        0
280
     0
281
     0
  0
CLASS
  1
AECC_DISP_REP_FEATURE_LINE_PROFILE
  2
AeccDbDispRepFeatureLineProfile
  3
AeccLand100|Product Desc: AutoCAD Civil 3D |Company: Autodesk,Inc. |WEB Address: www.autodesk.com
 90
        0
 91
        0
280
     0
281
     0
  0
CLASS
  1
AECC_DISP_REP_FEATURE_LINE_SECTION
  2
AeccDbDispRepFeatureLineSection
  3
AeccLand100|Product Desc: AutoCAD Civil 3D |Company: Autodesk,Inc. |WEB Address: www.autodesk.com
 90
        0
 91
        0
280
     0
281
     0
  0
CLASS
  1
AECC_DISP_REP_PROFILE_PROJECTION
  2
AeccDbDispRepProfileProjection
  3
AeccLand100|Product Desc: AutoCAD Civil 3D |Company: Autodesk,Inc. |WEB Address: www.autodesk.com
 90
      129
 91
        0
280
     0
281
     0
  0
CLASS
  1
AECC_DISP_REP_SECTION_PROJECTION
  2
AeccDbDispRepSectionProjection
  3
AeccLand100|Product Desc: AutoCAD Civil 3D |Company: Autodesk,Inc. |WEB Address: www.autodesk.com
 90
      129
 91
        0
280
     0
281
     0
  0
CLASS
  1
AECC_DISP_REP_HORGEOMETRY_BAND_LABEL_GROUP
  2
AeccDbViewHorizontalGeometryBandLabeling
  3
AeccLand100|Product Desc: AutoCAD Civil 3D |Company: Autodesk,Inc. |WEB Address: www.autodesk.com
 90
        0
 91
        0
280
     0
281
     0
  0
CLASS
  1
AECC_DISP_REP_PIPENETWORK_BAND_LABEL_GROUP
  2
AeccDbViewPipeNetworkBandLabeling
  3
AeccLand100|Product Desc: AutoCAD Civil 3D |Company: Autodesk,Inc. |WEB Address: www.autodesk.com
 90
        0
 91
        0
280
     0
281
     0
  0
CLASS
  1
AECC_DISP_REP_PROFILEDATA_BAND_LABEL_GROUP
  2
AeccDbViewProfileDataBandLabeling
  3
AeccLand100|Product Desc: AutoCAD Civil 3D |Company: Autodesk,Inc. |WEB Address: www.autodesk.com
 90
        0
 91
        0
280
     0
281
     0
  0
CLASS
  1
AECC_DISP_REP_PROFILE_PROJECTION_LABEL
  2
AeccDbViewProfileProjectionLabeling
  3
AeccLand100|Product Desc: AutoCAD Civil 3D |Company: Autodesk,Inc. |WEB Address: www.autodesk.com
 90
        0
 91
        0
280
     0
281
     0
  0
CLASS
  1
AECC_DISP_REP_SECTIONDATA_BAND_LABEL_GROUP
  2
AeccDbViewSectionDataBandLabeling
  3
AeccLand100|Product Desc: AutoCAD Civil 3D |Company: Autodesk,Inc. |WEB Address: www.autodesk.com
 90
        0
 91
        0
280
     0
281
     0
  0
CLASS
  1
AECC_DISP_REP_SECTION_PROJECTION_LABEL
  2
AeccDbViewSectionProjectionLabeling
  3
AeccLand100|Product Desc: AutoCAD Civil 3D |Company: Autodesk,Inc. |WEB Address: www.autodesk.com
 90
        0
 91
        0
280
     0
281
     0
  0
CLASS
  1
AECC_DISP_REP_SECTIONSEGMENT_BAND_LABEL_GROUP
  2
AeccDbViewSectionSegmentBandLabeling
  3
AeccLand100|Product Desc: AutoCAD Civil 3D |Company: Autodesk,Inc. |WEB Address: www.autodesk.com
 90
        0
 91
        0
280
     0
281
     0
  0
CLASS
  1
AECC_DISP_REP_SECTIONALDATA_BAND_LABEL_GROUP
  2
AeccDbViewSectionalDataBandLabeling
  3
AeccLand100|Product Desc: AutoCAD Civil 3D |Company: Autodesk,Inc. |WEB Address: www.autodesk.com
 90
        0
 91
        0
280
     0
281
     0
  0
CLASS
  1
AECC_DISP_REP_SUPERELEVATION_BAND_LABEL_GROUP
  2
AeccDbViewSuperElevationBandLabeling
  3
AeccLand100|Product Desc: AutoCAD Civil 3D |Company: Autodesk,Inc. |WEB Address: www.autodesk.com
 90
        0
 91
        0
280
     0
281
     0
  0
CLASS
  1
AECC_DISP_REP_VERTICALGEOMETRY_BAND_LABEL_GROUP
  2
AeccDbViewVerticalGeometryBandLabeling
  3
AeccLand100|Product Desc: AutoCAD Civil 3D |Company: Autodesk,Inc. |WEB Address: www.autodesk.com
 90
        0
 91
        0
280
     0
281
     0
  0
CLASS
  1
AECC_DISP_REP_AUTO_CORRIDOR_FEATURE_LINE_PROFILE
  2
AeccDbDispRepAutoCorridorFeatureLineProfile
  3
AeccLand100|Product Desc: AutoCAD Civil 3D |Company: Autodesk,Inc. |WEB Address: www.autodesk.com
 90
        0
 91
        0
280
     0
281
     0
  0
CLASS
  1
AECC_DISP_REP_AUTO_CORRIDOR_FEATURE_LINE_SECTION
  2
AeccDbDispRepAutoCorridorFeatureLineSection
  3
AeccLand100|Product Desc: AutoCAD Civil 3D |Company: Autodesk,Inc. |WEB Address: www.autodesk.com
 90
        0
 91
        0
280
     0
281
     0
  0
CLASS
  1
AECC_DISP_REP_INTERSECTION
  2
AeccDbDispRepIntersection
  3
AeccRoadway100|Product Desc: AutoCAD Civil 3D |Company: Autodesk,Inc. |WEB Address: www.autodesk.com
 90
        0
 91
        0
280
     0
281
     0
  0
CLASS
  1
AECC_DISP_REP_INTERSECTION_LOCATION_LABELING
  2
AeccDbViewIntersectionLocationLabel
  3
AeccRoadway100|Product Desc: AutoCAD Civil 3D |Company: Autodesk,Inc. |WEB Address: www.autodesk.com
 90
        0
 91
        0
280
     0
281
     0
  0
CLASS
  1
AECC_DISP_REP_SVFIGURE_PROFILE
  2
AeccDbViewSvFigureProfile
  3
AeccSurvey100|Product Desc: AutoCAD Civil 3D |Company: Autodesk,Inc. |WEB Address: www.autodesk.com
 90
        0
 91
        0
280
     0
281
     0
  0
CLASS
  1
AECC_DISP_REP_SVFIGURE_SECTION
  2
AeccDbViewSvFigureSection
  3
AeccSurvey100|Product Desc: AutoCAD Civil 3D |Company: Autodesk,Inc. |WEB Address: www.autodesk.com
 90
        0
 91
        0
280
     0
281
     0
  0
CLASS
  1
AECC_PROFILESECTIONENTITY_STYLE
  2
AeccDbProfileSectionEntityStyle
  3
AeccLand100|Product Desc: AutoCAD Civil 3D |Company: Autodesk,Inc. |WEB Address: www.autodesk.com
 90
      129
 91
        0
280
     0
281
     0
  0
CLASS
  1
AECC_IMPORT_STORM_SEWER_DEFAULTS
  2
AeccDbImportStormSewerDefaults
  3
AeccNetwork100|Product Desc: AutoCAD Civil 3D |Company: Autodesk,Inc. |WEB Address: www.autodesk.com
 90
      129
 91
        0
280
     0
281
     0
  0
CLASS
  1
AECC_POINTCLOUD_STYLE
  2
AeccDbPointCloudStyle
  3
AeccPointCloud100|Product Desc: AutoCAD Civil 3D |Company: Autodesk,Inc. |WEB Address: www.autodesk.com
 90
      129
 91
        0
280
     0
281
     0
  0
CLASS
  1
AECC_ASSEMBLY
  2
AeccDbAssembly
  3
AeccRoadway100|Product Desc: AutoCAD Civil 3D |Company: Autodesk,Inc. |WEB Address: www.autodesk.com
 90
      893
 91
        0
280
     0
281
     1
  0
CLASS
  1
AECC_SUBASSEMBLY_STYLE
  2
AeccDbSubAssemblyStyle
  3
AeccRoadway100|Product Desc: AutoCAD Civil 3D |Company: Autodesk,Inc. |WEB Address: www.autodesk.com
 90
      129
 91
        0
280
     0
281
     0
  0
CLASS
  1
AECC_SUBASSEMBLY
  2
AeccDbSubassembly
  3
AeccRoadway100|Product Desc: AutoCAD Civil 3D |Company: Autodesk,Inc. |WEB Address: www.autodesk.com
 90
      893
 91
        0
280
     0
281
     1
  0
CLASS
  1
AECC_SUPERELEVATION_DIAGRAM_VIEW_STYLE
  2
AeccDbGraphStyleSuperelevation
  3
AeccLand100|Product Desc: AutoCAD Civil 3D |Company: Autodesk,Inc. |WEB Address: www.autodesk.com
 90
      129
 91
        0
280
     0
281
     0
  0
CLASS
  1
MAPRESOURCEMANAGEROBJECT
  2
AcMapResourceManager
  3
AcMapSharedComponents
 90
     1024
 91
        0
280
     0
281
     0
  0
CLASS
  1
AECC_DISP_REP_SUPERELEVATION_DIAGRAM_VIEW
  2
AeccDbDispRepSuperelevationDiagram
  3
AeccLand100|Product Desc: AutoCAD Civil 3D |Company: Autodesk,Inc. |WEB Address: www.autodesk.com
 90
        0
 91
        0
280
     0
281
     0
  0
CLASS
  1
AEC_DISP_REP_BDG_SECTIONLINE_PLAN
  2
AecDbDispRepBdgElevLinePlan
  3
AecArchBase70|Product Desc: Autodesk Architectural Desktop 2007 |Company: Autodesk,Inc. |WEB Address: www.autodesk.com
 90
      129
 91
        0
280
     0
281
     0
  0
CLASS
  1
AECC_POINT_NODE
  2
AeccDbPointsNode
  3
AeccLand100|Product Desc: AutoCAD Civil 3D |Company: Autodesk,Inc. |WEB Address: www.autodesk.com
 90
      129
 91
        0
280
     0
281
     0
  0
CLASS
  1
AECC_POINT_GROUP_NODE
  2
AeccDbPointGroupsNode
  3
AeccLand100|Product Desc: AutoCAD Civil 3D |Company: Autodesk,Inc. |WEB Address: www.autodesk.com
 90
      129
 91
        0
280
     0
281
     0
  0
CLASS
  1
AECC_POINT_PG
  2
AeccDbPG
  3
AeccLand100|Product Desc: AutoCAD Civil 3D |Company: Autodesk,Inc. |WEB Address: www.autodesk.com
 90
      893
 91
        0
280
     0
281
     0
  0
CLASS
  1
AECC_QUERY_STATEMENT
  2
AeccDbQueryStatement
  3
AeccvBase100|Product Desc: AutoCAD Civil 3D |Company: Autodesk,Inc. |WEB Address: www.autodesk.com
 90
      129
 91
        0
280
     0
281
     0
  0
CLASS
  1
AECC_COGO_POINT
  2
AeccDbCogoPoint
  3
AeccLand100|Product Desc: AutoCAD Civil 3D |Company: Autodesk,Inc. |WEB Address: www.autodesk.com
 90
      828
 91
        0
280
     0
281
     1
  0
CLASS
  1
AECC_ALIGNMENT
  2
AeccDbAlignment
  3
AeccLand100|Product Desc: AutoCAD Civil 3D |Company: Autodesk,Inc. |WEB Address: www.autodesk.com
 90
      893
 91
        0
280
     0
281
     1
  0
CLASS
  1
BLOCKROTATIONPARAMETER
  2
AcDbBlockRotationParameter
  3
ObjectDBX Classes
 90
     1153
 91
        0
280
     0
281
     0
  0
CLASS
  1
BLOCKROTATIONGRIP
  2
AcDbBlockRotationGrip
  3
ObjectDBX Classes
 90
     1153
 91
        0
280
     0
281
     0
  0
CLASS
  1
BLOCKGRIPLOCATIONCOMPONENT
  2
AcDbBlockGripExpr
  3
ObjectDBX Classes
 90
     1153
 91
        0
280
     0
281
     0
  0
CLASS
  1
BLOCKROTATEACTION
  2
AcDbBlockRotateAction
  3
ObjectDBX Classes
 90
     1153
 91
        0
280
     0
281
     0
  0
CLASS
  1
BLOCKALIGNMENTPARAMETER
  2
AcDbBlockAlignmentParameter
  3
ObjectDBX Classes
 90
     1153
 91
        0
280
     0
281
     0
  0
CLASS
  1
BLOCKALIGNMENTGRIP
  2
AcDbBlockAlignmentGrip
  3
ObjectDBX Classes
 90
     1153
 91
        0
280
     0
281
     0
  0
CLASS
  1
ACDBSECTIONVIEWSTYLE
  2
AcDbSectionViewStyle
  3
ObjectDBX Classes
 90
     1025
 91
        0
280
     0
281
     0
  0
CLASS
  1
ACDBDETAILVIEWSTYLE
  2
AcDbDetailViewStyle
  3
ObjectDBX Classes
 90
     1025
 91
        0
280
     0
281
     0
  0
CLASS
  1
AECC_LABEL_TEXT_ITERATOR_CURVE_OR_SPIRAL_STYLE
  2
AeccDbLabelStyleTextIteratorCurveOrSpiral
  3
AeccLand100|Product Desc: AutoCAD Civil 3D |Company: Autodesk,Inc. |WEB Address: www.autodesk.com
 90
      129
 91
        0
280
     0
281
     0
  0
CLASS
  1
AECC_DISP_REP_CANT_DIAGRAM_VIEW
  2
AeccDbDispRepCantDiagram
  3
AeccLand100|Product Desc: AutoCAD Civil 3D |Company: Autodesk,Inc. |WEB Address: www.autodesk.com
 90
        0
 91
        0
280
     0
281
     0
  0
CLASS
  1
AECC_DISP_REP_GRID_SURFACE_CSV
  2
AeccDbDispRepSurfaceGridCSV
  3
AeccLand100|Product Desc: AutoCAD Civil 3D |Company: Autodesk,Inc. |WEB Address: www.autodesk.com
 90
        0
 91
        0
280
     0
281
     0
  0
CLASS
  1
AECC_DISP_REP_ALIGNMENT_CANT_LABEL_GROUP
  2
AeccDbViewAlignmentCantLabeling
  3
AeccLand100|Product Desc: AutoCAD Civil 3D |Company: Autodesk,Inc. |WEB Address: www.autodesk.com
 90
        0
 91
        0
280
     0
281
     0
  0
CLASS
  1
AECC_DISP_REP_ALIGNMENT_INDEXED_PI_LABEL
  2
AeccDbViewAlignmentIndexedPILabel
  3
AeccLand100|Product Desc: AutoCAD Civil 3D |Company: Autodesk,Inc. |WEB Address: www.autodesk.com
 90
        0
 91
        0
280
     0
281
     0
  0
CLASS
  1
AECC_DISP_REP_LINE_BETWEEN_POINTS_LABEL
  2
AeccDbViewLineBetweenPointsLabel
  3
AeccLand100|Product Desc: AutoCAD Civil 3D |Company: Autodesk,Inc. |WEB Address: www.autodesk.com
 90
        0
 91
        0
280
     0
281
     0
  0
CLASS
  1
AECC_DISP_REP_LOTLINE_CSV
  2
AeccDbViewLotLineCSV
  3
AeccLand100|Product Desc: AutoCAD Civil 3D |Company: Autodesk,Inc. |WEB Address: www.autodesk.com
 90
        0
 91
        0
280
     0
281
     0
  0
CLASS
  1
AECC_DISP_REP_CSVSTATIONSLIDER
  2
AeccDbDispRepCSVStationSlider
  3
AeccRoadway100|Product Desc: AutoCAD Civil 3D |Company: Autodesk,Inc. |WEB Address: www.autodesk.com
 90
      129
 91
        0
280
     0
281
     0
  0
CLASS
  1
AECC_DISP_REP_SVFIGURE_SEGMENT_LABEL
  2
AeccDbViewSvFigureSegmentLabel
  3
AeccSurvey100|Product Desc: AutoCAD Civil 3D |Company: Autodesk,Inc. |WEB Address: www.autodesk.com
 90
        0
 91
        0
280
     0
281
     0
  0
CLASS
  1
AECC_DISP_REP_SURVEY_FIGURE_LABEL_GROUP
  2
AeccDbViewSvFigureLabel
  3
AeccSurvey100|Product Desc: AutoCAD Civil 3D |Company: Autodesk,Inc. |WEB Address: www.autodesk.com
 90
        0
 91
        0
280
     0
281
     0
  0
CLASS
  1
AECC_CANT_DIAGRAM_VIEW_STYLE
  2
AeccDbGraphStyleCant
  3
AeccLand100|Product Desc: AutoCAD Civil 3D |Company: Autodesk,Inc. |WEB Address: www.autodesk.com
 90
      129
 91
        0
280
     0
281
     0
  0
CLASS
  1
AECC_PRESSURE_PART_LIST
  2
AeccDbPressurePartList
  3
AeccPressurePipes100|Product Desc: AutoCAD Civil 3D |Company: Autodesk,Inc. |WEB Address: www.autodesk.com
 90
      129
 91
        0
280
     0
281
     0
  0
CLASS
  1
AECC_APPURTENANCE_STYLE
  2
AeccDbAppurtenanceStyle
  3
LAN_AECCPRESSUEPIPES|Product Desc: AutoCAD Civil 3D |Company: Autodesk,Inc. |WEB Address: www.autodesk.com
 90
      129
 91
        0
280
     0
281
     0
  0
CLASS
  1
AECC_FITTING_STYLE
  2
AeccDbFittingStyle
  3
LAN_AECCPRESSUEPIPES|Product Desc: AutoCAD Civil 3D |Company: Autodesk,Inc. |WEB Address: www.autodesk.com
 90
      129
 91
        0
280
     0
281
     0
  0
CLASS
  1
AECC_PRESSURE_PIPE_STYLE
  2
AeccDbPressurePipeStyle
  3
AeccPressurePipes100|Product Desc: AutoCAD Civil 3D |Company: Autodesk,Inc. |WEB Address: www.autodesk.com
 90
      129
 91
        0
280
     0
281
     0
  0
CLASS
  1
AECC_CATCHMENT_STYLE
  2
AeccDbCatchmentAreaStyle
  3
AeccHydrology100|Product Desc: AutoCAD Civil 3D |Company: Autodesk,Inc. |WEB Address: www.autodesk.com
 90
      129
 91
        0
280
     0
281
     0
  0
CLASS
  1
EXACTERMXREFMAP
  2
ExAcTermXrefMap
  3
EXAC_SERVICE
 90
     1025
 91
        0
280
     1
281
     0
  0
CLASS
  1
AECC_DISP_REP_APPURTENANCE
  2
AeccDbDispRepAppurtenance
  3
AeccPressurePipes100|Product Desc: AutoCAD Civil 3D |Company: Autodesk,Inc. |WEB Address: www.autodesk.com
 90
      129
 91
        0
280
     0
281
     0
  0
CLASS
  1
AECC_DISP_REP_PRESSURE_PIPE
  2
AeccDbDispRepPressurePipe
  3
AeccPressurePipes100|Product Desc: AutoCAD Civil 3D |Company: Autodesk,Inc. |WEB Address: www.autodesk.com
 90
      129
 91
        0
280
     0
281
     0
  0
CLASS
  1
AECC_DISP_REP_FITTING
  2
AeccDbDispRepFitting
  3
AeccPressurePipes100|Product Desc: AutoCAD Civil 3D |Company: Autodesk,Inc. |WEB Address: www.autodesk.com
 90
      129
 91
        0
280
     0
281
     0
  0
CLASS
  1
AECC_DISP_REP_GRAPHPROFILE_PRESSUREPART
  2
AeccDbDispRepGraphProfilePressurePart
  3
AeccPressurePipes100|Product Desc: AutoCAD Civil 3D |Company: Autodesk,Inc. |WEB Address: www.autodesk.com
 90
      129
 91
        0
280
     0
281
     0
  0
CLASS
  1
AECC_DISP_REP_FITTING_LABELING
  2
AeccDbViewFittingLabel
  3
AeccPressurePipes100|Product Desc: AutoCAD Civil 3D |Company: Autodesk,Inc. |WEB Address: www.autodesk.com
 90
        0
 91
        0
280
     0
281
     0
  0
CLASS
  1
AECC_DISP_REP_FITTING_PROFILE_LABELING
  2
AeccDbViewFittingProfileLabel
  3
AeccPressurePipes100|Product Desc: AutoCAD Civil 3D |Company: Autodesk,Inc. |WEB Address: www.autodesk.com
 90
        0
 91
        0
280
     0
281
     0
  0
CLASS
  1
AECC_DISP_REP_PRESSURE_PIPE_LABELING
  2
AeccDbViewPressurePipeLabel
  3
AeccPressurePipes100|Product Desc: AutoCAD Civil 3D |Company: Autodesk,Inc. |WEB Address: www.autodesk.com
 90
        0
 91
        0
280
     0
281
     0
  0
CLASS
  1
AECC_DISP_REP_APPURTENANCE_LABELING
  2
AeccDbViewAppurtenanceLabel
  3
AeccPressurePipes100|Product Desc: AutoCAD Civil 3D |Company: Autodesk,Inc. |WEB Address: www.autodesk.com
 90
        0
 91
        0
280
     0
281
     0
  0
CLASS
  1
AECC_DISP_REP_APPURTENANCE_PROFILE_LABELING
  2
AeccDbViewAppurtenanceProfileLabel
  3
AeccPressurePipes100|Product Desc: AutoCAD Civil 3D |Company: Autodesk,Inc. |WEB Address: www.autodesk.com
 90
        0
 91
        0
280
     0
281
     0
  0
CLASS
  1
AECC_DISP_REP_PRESSURE_PIPE_PROFILE_LABELING
  2
AeccDbViewPressurePipeProfileLabel
  3
AeccPressurePipes100|Product Desc: AutoCAD Civil 3D |Company: Autodesk,Inc. |WEB Address: www.autodesk.com
 90
        0
 91
        0
280
     0
281
     0
  0
CLASS
  1
AECC_DISP_REP_CATCHMENT_AREA_LABEL
  2
AeccDbViewCatchmentAreaLabel
  3
AeccHydrology100|Product Desc: AutoCAD Civil 3D |Company: Autodesk,Inc. |WEB Address: www.autodesk.com
 90
        0
 91
        0
280
     0
281
     0
  0
CLASS
  1
AECC_DISP_REP_FLOW_SEGMENT_LABEL
  2
AeccDbViewFlowSegmentLabel
  3
AeccHydrology100|Product Desc: AutoCAD Civil 3D |Company: Autodesk,Inc. |WEB Address: www.autodesk.com
 90
        0
 91
        0
280
     0
281
     0
  0
CLASS
  1
AECC_DISP_REP_CATCHMENT_AREA
  2
AeccDbDispRepCatchmentArea
  3
AeccHydrology100|Product Desc: AutoCAD Civil 3D |Company: Autodesk,Inc. |WEB Address: www.autodesk.com
 90
      129
 91
        0
280
     0
281
     0
  0
CLASS
  1
AECC_DISP_REP_HYDRO_REGION
  2
AeccDbDispRepHydroRegion
  3
AeccHydrology100|Product Desc: AutoCAD Civil 3D |Company: Autodesk,Inc. |WEB Address: www.autodesk.com
 90
      129
 91
        0
280
     0
281
     0
  0
CLASS
  1
WIPEOUTVARIABLES
  2
AcDbWipeoutVariables
  3
"WipeOut|Product Desc:     WipeOut Dbx Application|Company:          Autodesk, Inc.|WEB Address:      www.autodesk.com"
 90
        0
 91
        0
280
     0
281
     0
  0
CLASS
  1
DIMASSOC
  2
AcDbDimAssoc
  3
"AcDbDimAssoc|Product Desc:     AcDim ARX App For Dimension|Company:          Autodesk, Inc.|WEB Address:      www.autodesk.com"
 90
        0
 91
        0
280
     0
281
     0
  0
CLASS
  1
AEC_DISP_REP_BDG_SECTIONLINE_PLAN
  2
AecDbDispRepBdgSectionLinePlan
  3
AecArchBase70|Product Desc: Autodesk Architectural Desktop 2007 |Company: Autodesk,Inc. |WEB Address: www.autodesk.com
 90
      129
 91
        0
280
     0
281
     0
  0
CLASS
  1
AEC_DISP_REP_BDG_SECTIONLINE_PLAN
  2
AecDbDispRepBdgElevLinePlan
  3
AecArchBase70|Product Desc: Autodesk Architectural Desktop 2007 |Company: Autodesk,Inc. |WEB Address: www.autodesk.com
 90
      129
 91
        0
280
     0
281
     0
  0
CLASS
  1
AECC_ALIGNMENT_LABEL_SET_EXT
  2
LabelGroupsInLabelSetExtensionObject
  3
AeccLand100|Product Desc: AutoCAD Civil 3D |Company: Autodesk,Inc. |WEB Address: www.autodesk.com
 90
      129
 91
        0
280
     0
281
     0
  0
CLASS
  1
AECC_VALIGNMENT_STYLE_EXTENSION
  2
AeccDbVAlignmentStyleExtension
  3
AeccLand100|Product Desc: AutoCAD Civil 3D |Company: Autodesk,Inc. |WEB Address: www.autodesk.com
 90
     1916
 91
        0
280
     0
281
     0
  0
CLASS
  1
AECC_PIPE_STYLE_EXTENSION
  2
AeccDbPipeStyleExtension
  3
AeccNetwork100|Product Desc: AutoCAD Civil 3D |Company: Autodesk,Inc. |WEB Address: www.autodesk.com
 90
     1916
 91
        0
280
     0
281
     0
  0
CLASS
  1
AECC_PARCEL
  2
AeccDbFace
  3
AeccLand100|Product Desc: AutoCAD Civil 3D |Company: Autodesk,Inc. |WEB Address: www.autodesk.com
 90
      893
 91
        0
280
     0
281
     1
  0
CLASS
  1
AECC_ALIGNMENT_STATION_LABEL_GROUP
  2
AeccDbAlignmentStationLabeling
  3
AeccLand100|Product Desc: AutoCAD Civil 3D |Company: Autodesk,Inc. |WEB Address: www.autodesk.com
 90
      893
 91
        0
280
     0
281
     1
  0
CLASS
  1
AECC_ALIGNMENT_GEOMPOINT_LABEL_GROUP
  2
AeccDbAlignmentGeomPointLabeling
  3
AeccLand100|Product Desc: AutoCAD Civil 3D |Company: Autodesk,Inc. |WEB Address: www.autodesk.com
 90
      893
 91
        0
280
     0
281
     1
  0
CLASS
  1
AECC_ALIGNMENT_STAEQU_LABEL_GROUP
  2
AeccDbAlignmentStaEquLabeling
  3
AeccLand100|Product Desc: AutoCAD Civil 3D |Company: Autodesk,Inc. |WEB Address: www.autodesk.com
 90
      893
 91
        0
280
     0
281
     1
  0
CLASS
  1
AECC_ALIGNMENT_DESIGNSPEED_LABEL_GROUP
  2
AeccDbAlignmentDesignSpeedLabeling
  3
AeccLand100|Product Desc: AutoCAD Civil 3D |Company: Autodesk,Inc. |WEB Address: www.autodesk.com
 90
      893
 91
        0
280
     0
281
     1
  0
CLASS
  1
AECC_ALIGNMENT_MINOR_STATION_LABEL_GROUP
  2
AeccDbAlignmentMinorStationLabeling
  3
AeccLand100|Product Desc: AutoCAD Civil 3D |Company: Autodesk,Inc. |WEB Address: www.autodesk.com
 90
      893
 91
        0
280
     0
281
     1
  0
CLASS
  1
AECC_PROFILE
  2
AeccDbVAlignment
  3
AeccLand100|Product Desc: AutoCAD Civil 3D |Company: Autodesk,Inc. |WEB Address: www.autodesk.com
 90
      893
 91
        0
280
     0
281
     1
  0
CLASS
  1
AECC_DISP_REP_SECTION_CORRIDOR_POINT_LABEL_GROUP
  2
AeccDbViewSectionCorridorPointLabeling
  3
AeccRoadway100|Product Desc: AutoCAD Civil 3D |Company: Autodesk,Inc. |WEB Address: www.autodesk.com
 90
        0
 91
        0
280
     0
281
     0
  0
CLASS
  1
AECC_DISP_REP_APPURTENANCE_CSV
  2
AeccDbDispRepAppurtenanceCSV
  3
AeccPressurePipes100|Product Desc: AutoCAD Civil 3D |Company: Autodesk,Inc. |WEB Address: www.autodesk.com
 90
     1024
 91
        0
280
     0
281
     0
  0
CLASS
  1
AECC_DISP_REP_FITTING_CSV
  2
AeccDbDispRepFittingCSV
  3
AeccPressurePipes100|Product Desc: AutoCAD Civil 3D |Company: Autodesk,Inc. |WEB Address: www.autodesk.com
 90
     1024
 91
        0
280
     0
281
     0
  0
CLASS
  1
AECC_DISP_REP_PRESSURE_PIPE_CSV
  2
AeccDbDispRepPressurePipeCSV
  3
AeccPressurePipes100|Product Desc: AutoCAD Civil 3D |Company: Autodesk,Inc. |WEB Address: www.autodesk.com
 90
     1024
 91
        0
280
     0
281
     0
  0
CLASS
  1
AECC_DISP_REP_PRESSUREPIPENETWORK
  2
AeccDbDispRepPressurePipeNetwork
  3
AeccPressurePipes100|Product Desc: AutoCAD Civil 3D |Company: Autodesk,Inc. |WEB Address: www.autodesk.com
 90
     1024
 91
        0
280
     0
281
     0
  0
CLASS
  1
AECC_DISP_REP_SECTION_PRESSUREPIPENETWORK
  2
AeccDbDispRepSectionPressurePipeNetwork
  3
AeccPressurePipes100|Product Desc: AutoCAD Civil 3D |Company: Autodesk,Inc. |WEB Address: www.autodesk.com
 90
     1024
 91
        0
280
     0
281
     0
  0
CLASS
  1
AECC_DISP_REP_PRESSURE_PART_TABLE
  2
AeccDbViewPressurePartTable
  3
AeccPressurePipes100|Product Desc: AutoCAD Civil 3D |Company: Autodesk,Inc. |WEB Address: www.autodesk.com
 90
     1024
 91
        0
280
     0
281
     0
  0
CLASS
  1
AECC_STATION_OFFSET_LABEL
  2
AeccDbStaOffsetLabel
  3
AeccLand100|Product Desc: AutoCAD Civil 3D |Company: Autodesk,Inc. |WEB Address: www.autodesk.com
 90
      893
 91
        0
280
     0
281
     1
  0
CLASS
  1
AECC_DBMARKER_STYLE_BLOCK_MAP
  2
AeccDbMarkerStyleBlockMap
  3
AeccLand100|Product Desc: AutoCAD Civil 3D |Company: Autodesk,Inc. |WEB Address: www.autodesk.com
 90
      129
 91
        0
280
     0
281
     0
  0
CLASS
  1
AECC_NOTIFICATIONINFOS
  2
AeccDbVAlignNotificationInfos
  3
AeccLand100|Product Desc: AutoCAD Civil 3D |Company: Autodesk,Inc. |WEB Address: www.autodesk.com
 90
     1916
 91
        0
280
     0
281
     0
  0
CLASS
  1
AECC_ENTITYEXTENDPARAM
  2
AeccDbVAlignFreeParabolaPassPtInfos
  3
AeccLand100|Product Desc: AutoCAD Civil 3D |Company: Autodesk,Inc. |WEB Address: www.autodesk.com
 90
     1916
 91
        0
280
     0
281
     0
  0
CLASS
  1
AECC_ENTITYCIRCLEINFOS
  2
AeccDbVAlignFreeCircleInfos
  3
AeccLand100|Product Desc: AutoCAD Civil 3D |Company: Autodesk,Inc. |WEB Address: www.autodesk.com
 90
     1916
 91
        0
280
     0
281
     0
  0
ENDSEC
  0
SECTION
  2
TABLES
  0
TABLE
  2
VPORT
  5
103
330
0
100
AcDbSymbolTable
 70
     1
  0
VPORT
  5
104
330
103
100
AcDbSymbolTableRecord
100
AcDbViewportTableRecord
  2
*Active
 70
     0
 10
0.0
 20
0.0
 11
1.0
 21
1.0
 12
4613123.826101472
 22
5543951.401867956
 13
0.0
 23
0.0
 14
10.0
 24
10.0
 15
10.0
 25
10.0
 16
0.0
 26
0.0
 36
2146.434259298213
 17
23685.85070078477
 27
5595.522453174606
 37
0.0
 40
18231.76091831805
 41
1.806161745827984
 42
50.0
 43
0.0
 44
0.0
 50
0.0
 51
0.0
 71
     0
 72
  1000
 73
     1
 74
     3
 75
     0
 76
     0
 77
     0
 78
     0
281
     0
 65
     1
110
0.0
120
0.0
130
0.0
111
1.0
121
0.0
131
0.0
112
0.0
122
1.0
132
0.0
 79
     0
146
0.0
348
105
 60
     2
 61
     5
292
     1
282
     1
141
0.0
142
0.0
 63
   250
421
  3355443
1001
ACAD_NAV_VCDISPLAY
1070
     3
  0
ENDTAB
  0
TABLE
  2
LTYPE
  5
FE
330
0
100
AcDbSymbolTable
 70
     2
  0
LTYPE
  5
FF
330
FE
100
AcDbSymbolTableRecord
100
AcDbLinetypeTableRecord
  2
ByBlock
 70
     0
  3

 72
    65
 73
     0
 40
0.0
  0
LTYPE
  5
100
330
FE
100
AcDbSymbolTableRecord
100
AcDbLinetypeTableRecord
  2
ByLayer
 70
     0
  3

 72
    65
 73
     0
 40
0.0
  0
LTYPE
  5
14
330
FE
100
AcDbSymbolTableRecord
100
AcDbLinetypeTableRecord
  2
Continuous
 70
     0
  3
Solid line
 72
    65
 73
     0
 40
0.0
  0
LTYPE
  5
29
330
FE
100
AcDbSymbolTableRecord
100
AcDbLinetypeTableRecord
  2
FENCELINE2
 70
     0
  3
Fenceline square ----[]-----[]----[]-----[]----[]---
 72
    65
 73
     4
 40
36.83
 49
6.349999999999999
 74
     0
 49
-2.54
 74
     4
 75
   132
340
2A
 46
2.54
 50
0.0
 44
-2.54
 45
0.0
 49
-2.54
 74
     0
 49
25.4
 74
     0
  0
ENDTAB
  0
TABLE
  2
LAYER
  5
F6
102
{ACAD_XDICTIONARY
360
F7
102
}
330
0
100
AcDbSymbolTable
 70
     7
  0
LAYER
  5
6
102
{ACAD_XDICTIONARY
360
7
102
}
330
F6
100
AcDbSymbolTableRecord
100
AcDbLayerTableRecord
  2
0
 70
     0
 62
     6
  6
Continuous
370
    -3
390
8
347
C
  0
LAYER
  5
27
102
{ACAD_XDICTIONARY
360
28
102
}
330
F6
100
AcDbSymbolTableRecord
100
AcDbLayerTableRecord
  2
d_ogrodzenia_plotki
 70
     0
 62
   140
  6
FENCELINE2
370
    -3
390
8
347
C
  0
LAYER
  5
63
330
F6
100
AcDbSymbolTableRecord
100
AcDbLayerTableRecord
  2
d_ogrodzenia_furtki
 70
     0
 62
     7
  6
Continuous
370
    -3
390
8
347
C
1001
AcCmTransparency
1071
        0
  0
LAYER
  5
16
330
F6
100
AcDbSymbolTableRecord
100
AcDbLayerTableRecord
  2
d_ogrodzenia_brama_4m
 70
     0
 62
     7
  6
Continuous
370
    -3
390
8
347
C
1001
AcCmTransparency
1071
        0
  0
LAYER
  5
9D
330
F6
100
AcDbSymbolTableRecord
100
AcDbLayerTableRecord
  2
d_ogrodzenia_stop_rynny
 70
     0
 62
   140
  6
Continuous
370
    -3
390
8
347
C
1001
AcCmTransparency
1071
        0
  0
LAYER
  5
A1
330
F6
100
AcDbSymbolTableRecord
100
AcDbLayerTableRecord
  2
d_ogrodzenia_brama_5m
 70
     0
 62
     7
  6
Continuous
370
    -3
390
8
347
C
1001
AcCmTransparency
1071
        0
  0
LAYER
  5
C2
102
{ACAD_XDICTIONARY
360
C3
102
}
330
F6
100
AcDbSymbolTableRecord
100
AcDbLayerTableRecord
  2
d_ogrodzenie_plotki
 70
     0
 62
   140
  6
FENCELINE2
370
    -3
390
8
347
C
  0
ENDTAB
  0
TABLE
  2
STYLE
  5
FB
330
0
100
AcDbSymbolTable
 70
     2
  0
STYLE
  5
FC
330
FB
100
AcDbSymbolTableRecord
100
AcDbTextStyleTableRecord
  2
Standard
 70
     0
 40
0.0
 41
0.7
 50
15.0
 71
     0
 42
2.5
  3
mpromans.shx
  4

  0
STYLE
  5
2A
330
FB
100
AcDbSymbolTableRecord
100
AcDbTextStyleTableRecord
  2

 70
     1
 40
0.0
 41
1.0
 50
0.0
 71
     0
 42
2.5
  3
ltypeshp.shx
  4

  0
ENDTAB
  0
TABLE
  2
VIEW
  5
101
330
0
100
AcDbSymbolTable
 70
     0
  0
ENDTAB
  0
TABLE
  2
UCS
  5
102
330
0
100
AcDbSymbolTable
 70
     0
  0
ENDTAB
  0
TABLE
  2
APPID
  5
108
330
0
100
AcDbSymbolTable
 70
     7
  0
APPID
  5
13
330
108
100
AcDbSymbolTableRecord
100
AcDbRegAppTableRecord
  2
ACAD
 70
     0
  0
APPID
  5
F1
330
108
100
AcDbSymbolTableRecord
100
AcDbRegAppTableRecord
  2
ACAD_PSEXT
 70
     0
  0
APPID
  5
B
330
108
100
AcDbSymbolTableRecord
100
AcDbRegAppTableRecord
  2
ADE
 70
     0
  0
APPID
  5
107
330
108
100
AcDbSymbolTableRecord
100
AcDbRegAppTableRecord
  2
ACAD_NAV_VCDISPLAY
 70
     0
  0
APPID
  5
F9
330
108
100
AcDbSymbolTableRecord
100
AcDbRegAppTableRecord
  2
AcLayerTools
 70
     0
  0
APPID
  5
17
330
108
100
AcDbSymbolTableRecord
100
AcDbRegAppTableRecord
  2
AcCmTransparency
 70
     0
  0
APPID
  5
13E
330
108
100
AcDbSymbolTableRecord
100
AcDbRegAppTableRecord
  2
ADE_PROJECTION
 70
     0
  0
ENDTAB
  0
TABLE
  2
DIMSTYLE
  5
109
330
0
100
AcDbSymbolTable
 70
     1
100
AcDbDimStyleTable
 71
     1
340
10A
  0
DIMSTYLE
105
10A
330
109
100
AcDbSymbolTableRecord
100
AcDbDimStyleTableRecord
  2
Standard
 70
     0
340
FC
  0
ENDTAB
  0
TABLE
  2
BLOCK_RECORD
  5
1
330
0
100
AcDbSymbolTable
 70
     0
  0
BLOCK_RECORD
  5
2
102
{ACAD_XDICTIONARY
360
3
102
}
330
1
100
AcDbSymbolTableRecord
100
AcDbBlockTableRecord
  2
*Model_Space
340
EE
 70
     0
280
     1
281
     0
  0
BLOCK_RECORD
  5
F2
330
1
100
AcDbSymbolTableRecord
100
AcDbBlockTableRecord
  2
*Paper_Space
340
F5
 70
     0
280
     1
281
     0
  0
ENDTAB
  0
ENDSEC
  0
SECTION
  2
BLOCKS
  0
BLOCK
  5
5
330
2
100
AcDbEntity
  8
0
100
AcDbBlockBegin
  2
*Model_Space
 70
     0
 10
0.0
 20
0.0
 30
0.0
  3
*Model_Space
  1

  0
ENDBLK
  5
ED
330
2
100
AcDbEntity
  8
0
100
AcDbBlockEnd
  0
BLOCK
  5
F3
330
F2
100
AcDbEntity
 67
     1
  8
0
100
AcDbBlockBegin
  2
*Paper_Space
 70
     0
 10
0.0
 20
0.0
 30
0.0
  3
*Paper_Space
  1

  0
ENDBLK
  5
F4
330
F2
100
AcDbEntity
 67
     1
  8
0
100
AcDbBlockEnd
  0
ENDSEC
  0
SECTION
  2
ENTITIES
  0
LWPOLYLINE
  5
15
330
2
100
AcDbEntity
  8
d_ogrodzenia_brama_4m
 48
0.1
100
AcDbPolyline
 90
        5
 70
   128
 43
0.0
 10
4632310.470415993
 20
5548715.0641482
 10
4632309.089925124
 20
5548716.511298834
 42
0.4076445094570911
 10
4632308.992600014
 20
5548713.716535517
 42
0.4205547770592924
 10
4632306.135565027
 20
5548713.817285679
 10
4632307.514784034
 20
5548712.368922839
  0
LWPOLYLINE
  5
18
330
2
100
AcDbEntity
  8
d_ogrodzenia_brama_4m
 48
0.1
100
AcDbPolyline
 90
        5
 70
   128
 43
0.0
 10
4632354.818527053
 20
5549841.628951121
 10
4632353.635732322
 20
5549840.016190569
 42
0.4076445094570911
 10
4632356.404292984
 20
5549840.410203243
 42
0.4205547770592924
 10
4632356.805847826
 20
5549837.579734518
 10
4632357.990058913
 20
5549839.191455364
  0
LWPOLYLINE
  5
19
330
2
100
AcDbEntity
  8
d_ogrodzenia_brama_4m
 48
0.1
100
AcDbPolyline
 90
        5
 70
   128
 43
0.0
 10
4632350.964557233
 20
5549807.292550211
 10
4632351.259933924
 20
5549809.270618107
 42
0.4076445094570911
 10
4632348.993628673
 20
5549807.632315734
 42
0.4205547770592924
 10
4632347.319814431
 20
5549809.9498889
 10
4632347.022700115
 20
5549807.972081254
  0
LWPOLYLINE
  5
1A
330
2
100
AcDbEntity
  8
d_ogrodzenia_brama_4m
 48
0.1
100
AcDbPolyline
 90
        5
 70
   128
 43
0.0
 10
4632448.624063674
 20
5549806.667094391
 10
4632447.956535521
 20
5549808.552407667
 42
0.4076445094570911
 10
4632446.724221904
 20
5549806.042113406
 42
0.4205547770592924
 10
4632444.158508493
 20
5549807.303031393
 10
4632444.824380136
 20
5549805.417132419
  0
LWPOLYLINE
  5
1B
330
2
100
AcDbEntity
  8
d_ogrodzenia_brama_4m
 48
0.1
100
AcDbPolyline
 90
        5
 70
   128
 43
0.0
 10
4632449.316709621
 20
5549833.53436905
 10
4632449.87349613
 20
5549831.613434701
 42
0.4076445094570911
 10
4632451.249674191
 20
5549834.047835674
 42
0.4205547770592924
 10
4632453.737737506
 20
5549832.639879548
 10
4632453.18263876
 20
5549834.561302296
  0
LWPOLYLINE
  5
1C
330
2
100
AcDbEntity
  8
d_ogrodzenia_brama_4m
 48
0.1
100
AcDbPolyline
 90
        5
 70
   128
 43
0.0
 10
4632248.298697613
 20
5549359.250484046
 10
4632248.03657552
 20
5549357.267735449
 42
0.4076445094570911
 10
4632250.275053196
 20
5549358.943859507
 42
0.4205547770592924
 10
4632251.987544937
 20
5549356.654717407
 10
4632252.251408776
 20
5549358.637234966
  0
LWPOLYLINE
  5
1D
330
2
100
AcDbEntity
  8
d_ogrodzenia_brama_4m
 48
0.1
100
AcDbPolyline
 90
        5
 70
   128
 43
0.0
 10
4632232.605139196
 20
5549135.822099044
 10
4632233.227114266
 20
5549137.722927024
 42
0.4076445094570911
 10
4632230.718772391
 20
5549136.486644208
 42
0.4205547770592924
 10
4632229.456050299
 20
5549139.051470213
 10
4632228.832405588
 20
5549137.151189373
  0
LWPOLYLINE
  5
1E
330
2
100
AcDbEntity
  8
d_ogrodzenia_brama_4m
 48
0.1
100
AcDbPolyline
 90
        5
 70
   128
 43
0.0
 10
4632326.035786742
 20
5549101.179724239
 10
4632326.657705866
 20
5549103.080570522
 42
0.4076445094570911
 10
4632324.149400379
 20
5549101.844213878
 42
0.4205547770592924
 10
4632322.886602793
 20
5549104.409002717
 10
4632322.263014015
 20
5549102.508703521
  0
LWPOLYLINE
  5
1F
330
2
100
AcDbEntity
  8
d_ogrodzenia_brama_4m
 48
0.1
100
AcDbPolyline
 90
        5
 70
   128
 43
0.0
 10
4632229.517943837
 20
5548705.676098897
 10
4632229.63590838
 20
5548707.672616955
 42
0.4076445094570911
 10
4632227.524581867
 20
5548705.838911826
 42
0.4205547770592924
 10
4632225.65093834
 20
5548707.998138411
 10
4632225.5312199
 20
5548706.001724753
  0
LWPOLYLINE
  5
20
330
2
100
AcDbEntity
  8
d_ogrodzenia_brama_4m
 48
0.1
100
AcDbPolyline
 90
        5
 70
   128
 43
0.0
 10
4632302.504483856
 20
5547639.658252854
 10
4632302.359049972
 20
5547641.65295809
 42
0.4076445094570911
 10
4632300.507013518
 20
5547639.557693162
 42
0.4205547770592924
 10
4632298.365861708
 20
5547641.451965701
 10
4632298.50954318
 20
5547639.45713347
  0
LWPOLYLINE
  5
21
330
2
100
AcDbEntity
  8
d_ogrodzenia_brama_4m
 48
0.1
100
AcDbPolyline
 90
        5
 70
   128
 43
0.0
 10
4632401.291487751
 20
5547637.187529875
 10
4632399.712205831
 20
5547638.414668257
 42
0.4076445094570911
 10
4632400.029159966
 20
5547635.636230884
 42
0.4205547770592924
 10
4632397.188628911
 20
5547635.313457207
 10
4632398.76683218
 20
5547634.084931896
  0
LWPOLYLINE
  5
22
330
2
100
AcDbEntity
  8
d_ogrodzenia_brama_4m
 48
0.1
100
AcDbPolyline
 90
        5
 70
   128
 43
0.0
 10
4632418.632458228
 20
5550090.46819796
 10
4632420.158775468
 20
5550089.175775556
 42
0.4076445094570911
 10
4632419.958862992
 20
5550091.96507818
 42
0.4205547770592924
 10
4632422.810449013
 20
5550092.168195624
 10
4632421.285267758
 20
5550093.461958405
  0
LWPOLYLINE
  5
23
330
2
100
AcDbEntity
  8
d_ogrodzenia_brama_4m
 48
0.1
100
AcDbPolyline
 90
        5
 70
   128
 43
0.0
 10
4632734.911256547
 20
5551045.363010015
 10
4632735.462396686
 20
5551043.440448098
 42
0.4076445094570911
 10
4632736.845721353
 20
5551045.870795114
 42
0.4205547770592924
 10
4632739.329637116
 20
5551044.455534856
 10
4632738.78018616
 20
5551046.378580212
  0
LWPOLYLINE
  5
24
330
2
100
AcDbEntity
  8
d_ogrodzenia_brama_4m
 48
0.1
100
AcDbPolyline
 90
        5
 70
   128
 43
0.0
 10
4632652.368808315
 20
5551105.554057345
 10
4632653.0265837
 20
5551103.665319269
 42
0.4076445094570911
 10
4632654.271854797
 20
5551106.169211041
 42
0.4205547770592924
 10
4632656.831017144
 20
5551104.895049531
 10
4632656.174901276
 20
5551106.784364734
  0
LWPOLYLINE
  5
25
330
2
100
AcDbEntity
  8
d_ogrodzenia_brama_4m
 48
0.1
100
AcDbPolyline
 90
        5
 70
   128
 43
0.0
 10
4633163.92109729
 20
5553835.457928346
 10
4633165.907663235
 20
5553835.22650726
 42
0.4076445094570911
 10
4633164.197114389
 20
5553837.438790422
 42
0.4205547770592924
 10
4633166.459493371
 20
5553839.186486294
 10
4633164.473131491
 20
5553839.419652494
  0
LWPOLYLINE
  5
26
330
2
100
AcDbEntity
  8
d_ogrodzenia_plotki
 48
0.07
100
AcDbPolyline
 90
       13
 70
   128
 43
0.0
 10
4633359.028621721
 20
5555008.459689857
 10
4633356.234355609
 20
5555008.36826386
 10
4633355.90349118
 20
5555005.192984594
 10
4633355.524386531
 20
5555002.876688136
 10
4633355.805665021
 20
5555001.485725608
 10
4633355.665903986
 20
5555000.097153241
 10
4633354.862083206
 20
5554998.830072389
 10
4633353.330764197
 20
5554989.473846348
 10
4633349.58450244
 20
5554964.723486708
 10
4633345.83101237
 20
5554939.968330514
 10
4633342.188886946
 20
5554915.313195117
 10
4633341.199622568
 20
5554915.459332013
 10
4633341.345759464
 20
5554916.448596389
  0
LWPOLYLINE
  5
2B
330
2
100
AcDbEntity
  8
d_ogrodzenia_plotki
 48
0.07
100
AcDbPolyline
 90
       20
 70
   128
 43
0.0
 10
4633360.905317034
 20
5555018.981222729
 10
4633358.336852185
 20
5555020.005164277
 10
4633358.607166932
 20
5555023.201972756
 10
4633361.193868796
 20
5555038.904985771
 10
4633363.91597785
 20
5555058.671835292
 10
4633364.269638547
 20
5555060.745200125
 10
4633364.524828681
 20
5555062.241273008
 10
4633365.103673793
 20
5555065.629476318
 10
4633365.898763443
 20
5555070.49722081
 10
4633366.651871126
 20
5555075.372800784
 10
4633367.381987558
 20
5555080.253389503
 10
4633368.088963844
 20
5555085.13806027
 10
4633368.783545532
 20
5555090.0268813
 10
4633369.483725379
 20
5555094.913338616
 10
4633370.160215219
 20
5555099.800112831
 10
4633370.813345952
 20
5555104.689474372
 10
4633371.438871211
 20
5555109.582661128
 10
4633371.88324431
 20
5555113.173271074
 10
4633370.890815686
 20
5555113.296093822
 10
4633370.767992937
 20
5555112.303665199
  0
LWPOLYLINE
  5
2C
330
2
100
AcDbEntity
  8
d_ogrodzenia_plotki
 48
0.07
100
AcDbPolyline
 90
       20
 70
   128
 43
0.0
 10
4633430.44798986
 20
5555101.639402649
 10
4633430.468020777
 20
5555101.723374191
 10
4633430.694181581
 20
5555102.608624777
 10
4633429.725300445
 20
5555102.85615123
 10
4633429.497164524
 20
5555101.963169537
 10
4633428.353925473
 20
5555097.170600817
 10
4633427.245889341
 20
5555092.364248754
 10
4633426.159964143
 20
5555087.549392708
 10
4633425.075541172
 20
5555082.73101965
 10
4633423.988466238
 20
5555077.909533565
 10
4633422.869460293
 20
5555073.096637096
 10
4633421.779629864
 20
5555068.28268808
 10
4633420.717827454
 20
5555063.461555431
 10
4633419.679046659
 20
5555058.634294514
 10
4633418.661771809
 20
5555053.796341666
 10
4633418.068346277
 20
5555051.063861892
 10
4633417.612764359
 20
5555048.948963907
 10
4633413.821000828
 20
5555029.482711934
 10
4633410.193895044
 20
5555010.708534088
 10
4633406.43919059
 20
5555010.85947772
  0
LWPOLYLINE
  5
2D
330
2
100
AcDbEntity
  8
d_ogrodzenia_plotki
 48
0.07
100
AcDbPolyline
 90
       10
 70
   128
 43
0.0
 10
4633390.89192955
 20
5554907.620955961
 10
4633390.699979328
 20
5554906.723260312
 10
4633390.683932043
 20
5554906.64274304
 10
4633389.70322002
 20
5554906.838201291
 10
4633389.720628556
 20
5554906.925548642
 10
4633394.951731963
 20
5554931.389905606
 10
4633399.525181991
 20
5554955.950902441
 10
4633404.173587335
 20
5554980.477657214
 10
4633407.982593187
 20
5554999.479270362
 10
4633404.562495277
 20
5555000.337944849
  0
LWPOLYLINE
  5
2E
330
2
100
AcDbEntity
  8
d_ogrodzenia_plotki
 48
0.07
100
AcDbPolyline
 90
       14
 70
   128
 43
0.0
 10
4633116.446388079
 20
5553488.68272613
 10
4633114.463774902
 20
5553492.987074727
 10
4633119.013044706
 20
5553496.070534877
 10
4633122.61345958
 20
5553508.946278098
 10
4633124.242771138
 20
5553514.792282236
 10
4633124.26323177
 20
5553514.866017624
 10
4633129.16108835
 20
5553532.851987751
 10
4633135.466440412
 20
5553556.830902153
 10
4633141.379128606
 20
5553580.912720654
 10
4633141.839576301
 20
5553582.839703457
 10
4633142.069042987
 20
5553583.803403797
 10
4633144.753527283
 20
5553595.274162922
 10
4633143.779836064
 20
5553595.502034395
 10
4633143.55196459
 20
5553594.528343175
  0
LWPOLYLINE
  5
2F
330
2
100
AcDbEntity
  8
d_ogrodzenia_plotki
 48
0.07
100
AcDbPolyline
 90
        8
 70
   128
 43
0.0
 10
4633119.410329375
 20
5553476.745178142
 10
4633114.30413093
 20
5553474.007701983
 10
4633110.570320079
 20
5553460.890598239
 10
4633105.705859708
 20
5553436.565238695
 10
4633100.565354559
 20
5553412.36420489
 10
4633097.791395754
 20
5553402.761554275
 10
4633096.830677829
 20
5553403.039080976
 10
4633097.10820453
 20
5553403.999798901
  0
LWPOLYLINE
  5
30
330
2
100
AcDbEntity
  8
d_ogrodzenia_plotki
 48
0.07
100
AcDbPolyline
 90
       15
 70
   128
 43
0.0
 10
4633152.554260288
 20
5553389.602870338
 10
4633152.331584558
 20
5553388.62797777
 10
4633151.35669199
 20
5553388.8506535
 10
4633153.586035753
 20
5553398.610902918
 10
4633158.487128083
 20
5553421.482806092
 10
4633160.873382097
 20
5553422.489666185
 10
4633161.629360651
 20
5553424.533763354
 10
4633160.402052316
 20
5553426.040402696
 10
4633166.248589004
 20
5553447.450616824
 10
4633173.210669663
 20
5553471.741777348
 10
4633174.880560941
 20
5553477.577442804
 10
4633176.538542999
 20
5553483.406579646
 10
4633182.918478318
 20
5553488.243280693
 10
4633183.308165849
 20
5553490.795981246
 10
4633178.930179806
 20
5553491.523332462
  0
LWPOLYLINE
  5
31
330
2
100
AcDbEntity
  8
d_ogrodzenia_plotki
 48
0.07
100
AcDbPolyline
 90
       26
 70
   128
 43
0.0
 10
4633194.764079633
 20
5553585.055338873
 10
4633194.911487453
 20
5553586.044414671
 10
4633193.92241165
 20
5553586.19182246
 10
4633192.127831683
 20
5553574.150561678
 10
4633191.977948203
 20
5553573.150910312
 10
4633191.675671221
 20
5553571.141339972
 10
4633190.29805605
 20
5553563.300873815
 10
4633188.844384884
 20
5553554.32423724
 10
4633188.678096417
 20
5553553.323441568
 10
4633188.347623313
 20
5553551.331773724
 10
4633187.893261589
 20
5553548.335234299
 10
4633187.191025407
 20
5553543.775110925
 10
4633187.121713174
 20
5553543.330836768
 10
4633186.787179452
 20
5553541.183806636
 10
4633186.352357799
 20
5553538.384997842
 10
4633185.60024788
 20
5553533.51809279
 10
4633184.867864703
 20
5553528.744602421
 10
4633184.15485044
 20
5553524.070151272
 10
4633184.004092728
 20
5553523.080232925
 10
4633183.467014923
 20
5553519.632032677
 10
4633183.439544426
 20
5553519.460046016
 10
4633182.917017743
 20
5553516.188613241
 10
4633182.704671217
 20
5553514.859615558
 10
4633181.956893483
 20
5553510.186681693
 10
4633181.103136466
 20
5553504.86354586
 10
4633175.966238499
 20
5553503.460880447
  0
LWPOLYLINE
  5
32
330
2
100
AcDbEntity
  8
d_ogrodzenia_plotki
 48
0.07
100
AcDbPolyline
 90
        3
 70
   128
 43
0.0
 10
4633256.243877459
 20
5553819.959999124
 10
4633256.862770067
 20
5553822.579732414
 10
4633241.530844536
 20
5553826.643429222
  0
LWPOLYLINE
  5
33
330
2
100
AcDbEntity
  8
d_ogrodzenia_plotki
 48
0.07
100
AcDbPolyline
 90
       27
 70
   128
 43
0.0
 10
4633256.986515455
 20
5553926.522865658
 10
4633257.132899158
 20
5553927.512093543
 10
4633256.143671272
 20
5553927.658477247
 10
4633255.477897992
 20
5553923.159332335
 10
4633254.743164077
 20
5553918.222087248
 10
4633254.006148834
 20
5553913.289402206
 10
4633253.327594279
 20
5553908.352088395
 10
4633252.682840929
 20
5553903.408947341
 10
4633252.076918966
 20
5553898.459823288
 10
4633251.489758817
 20
5553893.506455079
 10
4633251.464504842
 20
5553893.288502955
 10
4633250.924587479
 20
5553888.49411309
 10
4633249.74370365
 20
5553883.657381387
 10
4633249.943951534
 20
5553878.650169633
 10
4633249.436622587
 20
5553873.623115374
 10
4633248.948768533
 20
5553868.648654327
 10
4633248.252642367
 20
5553863.740085732
 10
4633247.867752663
 20
5553860.746100098
 10
4633247.56983322
 20
5553858.715944188
 10
4633247.20903351
 20
5553852.694264273
 10
4633247.20903351
 20
5553852.694264273
 10
4633246.599023522
 20
5553846.610786187
 10
4633246.286504031
 20
5553843.69384092
 10
4633245.697262528
 20
5553838.679673525
 10
4633245.071444829
 20
5553833.78184185
 10
4633244.945779896
 20
5553829.024424195
 10
4633242.274329762
 20
5553829.549841051
  0
LWPOLYLINE
  5
34
330
2
100
AcDbEntity
  8
d_ogrodzenia_plotki
 48
0.07
100
AcDbPolyline
 90
       25
 70
   128
 43
0.0
 10
4633180.438828135
 20
5553945.980986376
 10
4633180.572236224
 20
5553946.972047566
 10
4633181.563297414
 20
5553946.838639477
 10
4633181.152769481
 20
5553943.788912106
 10
4633179.742478159
 20
5553938.933234416
 10
4633179.075488015
 20
5553933.977539935
 10
4633178.408119443
 20
5553929.019033753
 10
4633177.779388765
 20
5553924.064335524
 10
4633177.02776202
 20
5553919.133482899
 10
4633176.237417585
 20
5553914.201726026
 10
4633175.409339243
 20
5553909.275518988
 10
4633174.543256331
 20
5553904.353323705
 10
4633173.659762938
 20
5553899.432209994
 10
4633173.495289582
 20
5553894.377251532
 10
4633172.303290881
 20
5553889.498804993
 10
4633170.867845235
 20
5553884.656178394
 10
4633169.814372004
 20
5553879.757349696
 10
4633168.125296907
 20
5553875.014829835
 10
4633166.807628363
 20
5553870.165104124
 10
4633165.71089975
 20
5553865.255429078
 10
4633164.619186695
 20
5553860.357810093
 10
4633163.581164355
 20
5553855.452629773
 10
4633163.038154921
 20
5553852.881963463
 10
4633162.49852823
 20
5553850.571066511
 10
4633166.460432083
 20
5553849.017528516
  0
LWPOLYLINE
  5
35
330
2
100
AcDbEntity
  8
d_ogrodzenia_plotki
 48
0.07
100
AcDbPolyline
 90
       20
 70
   128
 43
0.0
 10
4633160.637760628
 20
5553816.370930396
 10
4633160.490818705
 20
5553815.390797929
 10
4633160.283571176
 20
5553813.967429438
 10
4633160.786175412
 20
5553810.206654496
 10
4633160.320560703
 20
5553805.310536096
 10
4633159.812444898
 20
5553800.337101531
 10
4633159.265349951
 20
5553795.369827311
 10
4633158.67802146
 20
5553790.407709761
 10
4633158.061154866
 20
5553785.44560366
 10
4633157.461134132
 20
5553780.484341821
 10
4633156.782221565
 20
5553775.485677748
 10
4633156.769355697
 20
5553770.440066576
 10
4633156.022255404
 20
5553765.555663044
 10
4633155.230104604
 20
5553760.623887178
 10
4633154.402984881
 20
5553755.696138713
 10
4633153.722282003
 20
5553751.750363544
 10
4633153.563479662
 20
5553750.758378668
 10
4633153.067673844
 20
5553747.659001955
 10
4633152.080228517
 20
5553747.816963115
 10
4633152.238189678
 20
5553748.804408441
  0
LWPOLYLINE
  5
36
330
2
100
AcDbEntity
  8
d_ogrodzenia_plotki
 48
0.07
100
AcDbPolyline
 90
        3
 70
   128
 43
0.0
 10
4633229.736907972
 20
5553836.203447957
 10
4633231.382144505
 20
5553835.93505791
 10
4633232.198768758
 20
5553832.127256499
  0
LWPOLYLINE
  5
37
330
2
100
AcDbEntity
  8
d_ogrodzenia_plotki
 48
0.07
100
AcDbPolyline
 90
        3
 70
   128
 43
0.0
 10
4633227.32093201
 20
5553826.809137972
 10
4633229.531081237
 20
5553826.501469464
 10
4633231.455283532
 20
5553829.22084467
  0
LWPOLYLINE
  5
38
330
2
100
AcDbEntity
  8
d_ogrodzenia_plotki
 48
0.07
100
AcDbPolyline
 90
        3
 70
   128
 43
0.0
 10
4633185.469762978
 20
5553847.587824087
 10
4633183.031602491
 20
5553847.562032212
 10
4633180.212927112
 20
5553845.480738945
  0
LWPOLYLINE
  5
39
330
2
100
AcDbEntity
  8
d_ogrodzenia_plotki
 48
0.07
100
AcDbPolyline
 90
        3
 70
   128
 43
0.0
 10
4633179.465718048
 20
5553842.575282248
 10
4633180.241928926
 20
5553839.931997206
 10
4633183.053787012
 20
5553838.193514102
  0
LWPOLYLINE
  5
3A
330
2
100
AcDbEntity
  8
d_ogrodzenia_plotki
 48
0.07
100
AcDbPolyline
 90
       79
 70
   129
 43
0.0
 10
4633163.553204513
 20
5553831.341246977
 10
4633163.205912516
 20
5553828.848874083
 10
4633163.204144447
 20
5553828.836185707
 10
4633162.42438615
 20
5553823.747443074
 10
4633162.02226683
 20
5553818.861654083
 10
4633162.065799162
 20
5553818.461098922
 10
4633162.081524402
 20
5553818.453295045
 10
4633162.094984121
 20
5553817.648840108
 10
4633162.092437295
 20
5553817.474393323
 10
4633162.051248687
 20
5553817.405284944
 10
4633161.811199795
 20
5553817.077993974
 10
4633161.542804336
 20
5553816.824501823
 10
4633161.42771762
 20
5553816.755162505
 10
4633161.309036561
 20
5553816.687303518
 10
4633161.10210001
 20
5553816.58149718
 10
4633160.477225568
 20
5553816.298131592
 10
4633160.085493809
 20
5553816.160200923
 10
4633159.988979555
 20
5553816.135447651
 10
4633159.783150579
 20
5553816.092308876
 10
4633156.998673443
 20
5553815.636930064
 10
4633152.593320019
 20
5553814.916462677
 10
4633150.411928347
 20
5553814.581770338
 10
4633150.248897577
 20
5553814.556756812
 10
4633146.395039161
 20
5553813.969763061
 10
4633146.391772783
 20
5553813.969261593
 10
4633142.422807077
 20
5553813.364729611
 10
4633140.306691805
 20
5553813.039969379
 10
4633140.306334092
 20
5553813.039914352
 10
4633140.30566358
 20
5553813.039811341
 10
4633140.095972541
 20
5553813.007630051
 10
4633139.999594176
 20
5553813.075682179
 10
4633134.652385496
 20
5553812.259815125
 10
4633132.968913777
 20
5553812.002954123
 10
4633132.816469805
 20
5553811.985930061
 10
4633132.736707418
 20
5553811.980256011
 10
4633132.459233173
 20
5553811.980697222
 10
4633131.857201686
 20
5553812.025368337
 10
4633131.683546361
 20
5553812.046027143
 10
4633131.553851572
 20
5553812.06731047
 10
4633130.912227842
 20
5553812.288211217
 10
4633130.403276133
 20
5553812.564965321
 10
4633130.395771116
 20
5553812.568694826
 10
4633130.2966139
 20
5553812.618992028
 10
4633130.110702993
 20
5553813.082203451
 10
4633130.056711406
 20
5553813.514437961
 10
4633130.05869721
 20
5553814.027881088
 10
4633130.727084533
 20
5553815.257717186
 10
4633133.008100464
 20
5553826.075925509
 10
4633134.320268057
 20
5553832.683840663
 10
4633135.743761928
 20
5553839.995025572
 10
4633139.173445917
 20
5553857.378650649
 10
4633140.449616959
 20
5553863.981329413
 10
4633140.722345026
 20
5553864.596331533
 10
4633141.239535824
 20
5553865.032273746
 10
4633141.406404204
 20
5553865.111166711
 10
4633147.614067545
 20
5553867.628286665
 10
4633150.84945739
 20
5553868.897255425
 10
4633151.563804075
 20
5553868.993364003
 10
4633152.264869188
 20
5553868.740516592
 10
4633152.770185039
 20
5553868.192603949
 10
4633152.949895727
 20
5553867.530819998
 10
4633154.05772604
 20
5553864.719670063
 10
4633154.196434261
 20
5553862.352163172
 10
4633154.506516701
 20
5553857.059357993
 10
4633154.55775582
 20
5553855.980931642
 10
4633154.575171808
 20
5553855.615133393
 10
4633154.588518687
 20
5553855.334252856
 10
4633154.687876587
 20
5553852.590515657
 10
4633154.704161766
 20
5553852.140806484
 10
4633156.852444873
 20
5553850.52438093
 10
4633158.014725524
 20
5553847.803060834
 10
4633161.233304591
 20
5553845.628235952
 10
4633162.740207611
 20
5553842.137742059
 10
4633163.509399251
 20
5553841.804135394
 10
4633164.198371968
 20
5553841.128569056
 10
4633164.609464058
 20
5553840.201483787
 10
4633164.664153632
 20
5553839.514202723
 10
4633164.614334376
 20
5553838.983051208
 10
4633163.553217579
 20
5553831.34134091
 42
-0.0001185470477377
  0
LWPOLYLINE
  5
3B
330
2
100
AcDbEntity
  8
d_ogrodzenia_plotki
 48
0.07
100
AcDbPolyline
 90
        4
 70
   128
 43
0.0
 10
4633237.610925287
 20
5553778.569201914
 10
4633230.77710229
 20
5553727.674127018
 10
4633231.768207791
 20
5553727.541048531
 10
4633231.90128628
 20
5553728.532154033
  0
LWPOLYLINE
  5
3C
330
2
100
AcDbEntity
  8
d_ogrodzenia_plotki
 48
0.07
100
AcDbPolyline
 90
        2
 70
   128
 43
0.0
 10
4633165.713223019
 20
5553846.11207182
 10
4633161.233304591
 20
5553845.628235952
  0
LWPOLYLINE
  5
3D
330
2
100
AcDbEntity
  8
d_ogrodzenia_plotki
 48
0.07
100
AcDbPolyline
 90
        2
 70
   128
 43
0.0
 10
4632989.006839959
 20
5552923.347769577
 10
4632996.953271873
 20
5552915.984347383
  0
LWPOLYLINE
  5
3E
330
2
100
AcDbEntity
  8
d_ogrodzenia_plotki
 48
0.07
100
AcDbPolyline
 90
        2
 70
   128
 43
0.0
 10
4632984.937127922
 20
5552914.542802577
 10
4632995.694598037
 20
5552913.261161717
  0
LWPOLYLINE
  5
3F
330
2
100
AcDbEntity
  8
d_ogrodzenia_plotki
 48
0.07
100
AcDbPolyline
 90
        3
 70
   128
 43
0.0
 10
4632945.78405899
 20
5552943.362044564
 10
4632943.717630357
 20
5552944.07777993
 10
4632941.227773271
 20
5552941.746270707
  0
LWPOLYLINE
  5
40
330
2
100
AcDbEntity
  8
d_ogrodzenia_plotki
 48
0.07
100
AcDbPolyline
 90
        3
 70
   128
 43
0.0
 10
4632941.724814953
 20
5552934.515809844
 10
4632940.204304744
 20
5552935.047806625
 10
4632939.969084725
 20
5552939.023091838
  0
LWPOLYLINE
  5
41
330
2
100
AcDbEntity
  8
d_ogrodzenia_plotki
 48
0.07
100
AcDbPolyline
 90
       27
 70
   128
 43
0.0
 10
4632932.422828267
 20
5552945.816030337
 10
4632929.002733979
 20
5552947.546991804
 10
4632929.970820458
 20
5552949.432485264
 10
4632931.128448754
 20
5552952.555140928
 10
4632931.745193969
 20
5552954.529557541
 10
4632933.217608978
 20
5552958.120912187
 10
4632935.245569427
 20
5552962.697798455
 10
4632936.600131793
 20
5552967.57520461
 10
4632938.636487295
 20
5552972.14891693
 10
4632940.673517299
 20
5552976.723189878
 10
4632942.715541516
 20
5552981.281669998
 10
4632944.596034418
 20
5552985.900978562
 10
4632946.484410145
 20
5552990.557546942
 10
4632948.684993529
 20
5552995.101807543
 10
4632950.949809522
 20
5552999.561218952
 10
4632952.818456208
 20
5553004.165155384
 10
4632954.693644926
 20
5553008.799887213
 10
4632956.857566681
 20
5553012.164273021
 10
4632957.256829938
 20
5553013.157768591
 10
4632959.116224076
 20
5553017.799634804
 10
4632960.968110965
 20
5553022.444394956
 10
4632962.815144515
 20
5553027.091026
 10
4632964.655009476
 20
5553031.740420437
 10
4632966.493499107
 20
5553036.390345043
 10
4632967.543161074
 20
5553038.090504168
 10
4632966.692265461
 20
5553038.615838971
 10
4632966.166930656
 20
5553037.764943359
  0
LWPOLYLINE
  5
42
330
2
100
AcDbEntity
  8
d_ogrodzenia_plotki
 48
0.07
100
AcDbPolyline
 90
       27
 70
   128
 43
0.0
 10
4632931.164139722
 20
5552943.09285147
 10
4632927.401154283
 20
5552944.187238181
 10
4632927.37490984
 20
5552944.112177661
 10
4632925.244581663
 20
5552939.579120077
 10
4632923.472087132
 20
5552934.996496962
 10
4632920.966060708
 20
5552930.422415753
 10
4632918.778671363
 20
5552925.80308913
 10
4632917.342875674
 20
5552920.956251132
 10
4632917.028771157
 20
5552919.89294706
 10
4632915.927084344
 20
5552916.100192825
 10
4632914.557623416
 20
5552911.232557485
 10
4632913.944843651
 20
5552906.161508176
 10
4632912.634383167
 20
5552901.285746741
 10
4632911.348194419
 20
5552896.404902737
 10
4632909.99784048
 20
5552891.455290374
 10
4632908.755842082
 20
5552886.619668639
 10
4632907.938561806
 20
5552883.383737154
 10
4632907.52565524
 20
5552881.743249745
 10
4632906.292366395
 20
5552876.895150059
 10
4632905.039603831
 20
5552872.050516592
 10
4632903.805345883
 20
5552867.204436363
 10
4632902.503849508
 20
5552862.388162468
 10
4632901.103037049
 20
5552857.597698867
 10
4632899.682409
 20
5552852.806851413
 10
4632898.709202306
 20
5552849.575815963
 10
4632897.751694383
 20
5552849.864222926
 10
4632898.040101345
 20
5552850.821730849
  0
LWPOLYLINE
  5
43
330
2
100
AcDbEntity
  8
d_ogrodzenia_plotki
 48
0.07
100
AcDbPolyline
 90
       27
 70
   128
 43
0.0
 10
4633006.847513128
 20
5552911.41116578
 10
4633010.252753783
 20
5552910.411301978
 10
4633011.36531489
 20
5552916.218849532
 10
4633012.273581321
 20
5552921.121907244
 10
4633013.159065722
 20
5552926.022464131
 10
4633014.039821386
 20
5552930.915384805
 10
4633014.937980499
 20
5552935.796446023
 10
4633015.879927001
 20
5552940.666624611
 10
4633016.798144561
 20
5552945.540153498
 10
4633017.753785444
 20
5552950.383446555
 10
4633018.917834266
 20
5552955.154702703
 10
4633020.30316551
 20
5552959.874310399
 10
4633020.397038817
 20
5552960.184896236
 10
4633021.098106238
 20
5552964.874836472
 10
4633021.331166119
 20
5552966.031997833
 10
4633022.456373543
 20
5552969.514659331
 10
4633023.148799449
 20
5552971.601872904
 10
4633023.676002336
 20
5552974.31680554
 10
4633025.192447628
 20
5552979.024544328
 10
4633026.745305489
 20
5552983.72283736
 10
4633028.332168984
 20
5552988.416067139
 10
4633029.558742341
 20
5552993.239524023
 10
4633031.187524333
 20
5552997.931717503
 10
4633032.837805327
 20
5553002.621990767
 10
4633034.452741457
 20
5553007.164468426
 10
4633035.394967085
 20
5553006.829489517
 10
4633035.059988176
 20
5553005.887263891
  0
LWPOLYLINE
  5
44
330
2
100
AcDbEntity
  8
d_ogrodzenia_plotki
 48
0.07
100
AcDbPolyline
 90
       25
 70
   128
 43
0.0
 10
4633005.588839292
 20
5552908.687980114
 10
4633009.427673183
 20
5552906.391577193
 10
4633008.7633958
 20
5552903.930785533
 10
4633008.109333111
 20
5552901.529894401
 10
4633006.684118586
 20
5552896.717997163
 10
4633005.285115778
 20
5552891.909885703
 10
4633003.905302059
 20
5552887.112673864
 10
4633002.740831127
 20
5552882.264687025
 10
4633001.548806098
 20
5552877.402813672
 10
4633000.319587636
 20
5552872.551941671
 10
4632999.103083224
 20
5552867.701651741
 10
4632997.884523722
 20
5552862.819878604
 10
4632996.273674292
 20
5552858.044077436
 10
4632994.923195512
 20
5552853.26194962
 10
4632993.828712638
 20
5552848.404216393
 10
4632992.734701118
 20
5552843.524022769
 10
4632991.618344024
 20
5552838.648376502
 10
4632990.497866104
 20
5552833.774711118
 10
4632989.373887494
 20
5552828.901952782
 10
4632988.246242109
 20
5552824.030653997
 10
4632987.127656711
 20
5552819.158714461
 10
4632986.018724751
 20
5552814.283941999
 10
4632984.979502406
 20
5552809.701131813
 10
4632985.954742093
 20
5552809.47998129
 10
4632986.175892569
 20
5552810.455220988
  0
LWPOLYLINE
  5
45
330
2
100
AcDbEntity
  8
d_ogrodzenia_brama_4m
 48
0.1
100
AcDbPolyline
 90
        5
 70
   128
 43
0.0
 10
4632856.032270881
 20
5552084.368282118
 10
4632856.968157331
 20
5552086.135799168
 42
0.4076445094570911
 10
4632854.286237488
 20
5552085.343662757
 42
0.4205547770592924
 10
4632853.477642959
 20
5552088.085737592
 10
4632852.540204099
 20
5552086.319043397
  0
LWPOLYLINE
  5
46
330
2
100
AcDbEntity
  8
d_ogrodzenia_brama_4m
 48
0.1
100
AcDbPolyline
 90
        5
 70
   128
 43
0.0
 10
4632752.027540039
 20
5552035.639651378
 10
4632751.111181041
 20
5552033.861932065
 42
-0.4076445094570911
 10
4632750.229671761
 20
5552036.515818863
 42
-0.4205547770592924
 10
4632747.517006566
 20
5552035.613462682
 10
4632748.431803482
 20
5552037.39198634
  0
LWPOLYLINE
  5
47
330
2
100
AcDbEntity
  8
d_ogrodzenia_brama_4m
 48
0.1
100
AcDbPolyline
 90
        5
 70
   128
 43
0.0
 10
4632862.174869502
 20
5552026.086404343
 10
4632864.146070637
 20
5552026.424584867
 42
0.4076445094570911
 10
4632861.881083533
 20
5552028.064709125
 42
0.4205547770592924
 10
4632863.558795041
 20
5552030.379462592
 10
4632861.587297569
 20
5552030.043013903
  0
LWPOLYLINE
  5
48
330
2
100
AcDbEntity
  8
d_ogrodzenia_plotki
 48
0.07
100
AcDbPolyline
 90
        9
 70
   128
 43
0.0
 10
4632650.154001654
 20
5550742.780182168
 10
4632649.875034298
 20
5550741.819881583
 10
4632648.914733713
 20
5550742.09884894
 10
4632654.050369757
 20
5550759.777456042
 10
4632660.200825564
 20
5550784.127454772
 10
4632666.083976784
 20
5550808.521384915
 10
4632670.790182495
 20
5550827.455235936
 10
4632672.090384303
 20
5550837.765367101
 10
4632672.094565132
 20
5550838.035931551
  0
LWPOLYLINE
  5
49
330
2
100
AcDbEntity
  8
d_ogrodzenia_plotki
 48
0.07
100
AcDbPolyline
 90
        7
 70
   128
 43
0.0
 10
4632673.377397202
 20
5550841.591594902
 10
4632673.563669156
 20
5550841.913584265
 10
4632676.682780876
 20
5550852.322560908
 10
4632677.76004952
 20
5550857.363356168
 10
4632683.036188097
 20
5550881.899208262
 10
4632684.829786671
 20
5550890.60529836
 10
4632681.502883415
 20
5550892.145816011
  0
LWPOLYLINE
  5
4A
330
2
100
AcDbEntity
  8
d_ogrodzenia_plotki
 48
0.07
100
AcDbPolyline
 90
        6
 70
   128
 43
0.0
 10
4632683.699641278
 20
5550902.605208639
 10
4632687.182490277
 20
5550902.216046828
 10
4632688.034958196
 20
5550906.498891268
 10
4632693.014468627
 20
5550931.096020548
 10
4632695.251368954
 20
5550942.786414128
 10
4632691.617590759
 20
5550944.786585383
  0
LWPOLYLINE
  5
4B
330
2
100
AcDbEntity
  8
d_ogrodzenia_plotki
 48
0.07
100
AcDbPolyline
 90
        9
 70
   128
 43
0.0
 10
4632692.367808759
 20
5550948.491389418
 10
4632696.355811734
 20
5550948.605302961
 10
4632697.699182322
 20
5550955.749010866
 10
4632702.717794362
 20
5550980.331660529
 10
4632703.607106583
 20
5550984.953107607
 10
4632703.219142576
 20
5550986.792780941
 10
4632704.190728657
 20
5550987.985989045
 10
4632705.13076098
 20
5550992.871010891
 10
4632701.435650768
 20
5550994.022164067
  0
LWPOLYLINE
  5
4C
330
2
100
AcDbEntity
  8
d_ogrodzenia_plotki
 48
0.07
100
AcDbPolyline
 90
        6
 70
   128
 43
0.0
 10
4632702.15539349
 20
5550997.733009038
 10
4632706.040636032
 20
5550997.632707479
 10
4632707.435914817
 20
5551004.982200441
 10
4632713.31041538
 20
5551035.476001106
 10
4632711.625920948
 20
5551036.645511173
 10
4632711.541970605
 20
5551036.92310787
  0
LWPOLYLINE
  5
4D
330
2
100
AcDbEntity
  8
d_ogrodzenia_plotki
 48
0.07
100
AcDbPolyline
 90
       18
 70
   128
 43
0.0
 10
4632713.598550616
 20
5551040.094681396
 10
4632713.80288934
 20
5551040.67294132
 10
4632716.449106558
 20
5551054.347012526
 10
4632716.557376714
 20
5551054.909434659
 10
4632716.63896949
 20
5551055.332476371
 10
4632716.832095656
 20
5551056.334395171
 10
4632717.398061341
 20
5551059.275436641
 10
4632718.342871141
 20
5551064.201442365
 10
4632719.928909066
 20
5551072.233316163
 10
4632723.645790886
 20
5551072.100100994
 10
4632724.129948208
 20
5551075.462835578
 10
4632720.828685589
 20
5551076.71652565
 10
4632725.710077907
 20
5551103.677490017
 10
4632727.272926954
 20
5551112.166177299
 10
4632730.223529808
 20
5551128.370618137
 10
4632732.852221133
 20
5551144.540970565
 10
4632733.839264114
 20
5551144.380514488
 10
4632733.678808037
 20
5551143.393471506
  0
LWPOLYLINE
  5
4E
330
2
100
AcDbEntity
  8
d_ogrodzenia_plotki
 48
0.07
100
AcDbPolyline
 90
       13
 70
   128
 43
0.0
 10
4632605.570040747
 20
5550758.643330808
 10
4632605.363620479
 20
5550757.664867384
 10
4632606.342083904
 20
5550757.458447117
 10
4632606.913379085
 20
5550760.16647305
 10
4632607.948122988
 20
5550761.845682846
 10
4632607.691144719
 20
5550763.853200285
 10
4632609.043541103
 20
5550770.263764564
 10
4632614.438595337
 20
5550794.592029405
 10
4632619.318694628
 20
5550819.022523287
 10
4632623.961768529
 20
5550841.896150366
 10
4632621.750858529
 20
5550844.232186022
 10
4632624.949730466
 20
5550854.716016162
 10
4632627.214387765
 20
5550854.228052388
  0
LWPOLYLINE
  5
4F
330
2
100
AcDbEntity
  8
d_ogrodzenia_plotki
 48
0.07
100
AcDbPolyline
 90
        9
 70
   128
 43
0.0
 10
4632628.497219827
 20
5550857.783715742
 10
4632625.924627527
 20
5550858.893728647
 10
4632627.732744703
 20
5550866.89894003
 10
4632628.564378286
 20
5550867.25366904
 10
4632632.076440228
 20
5550882.476047582
 10
4632633.069030503
 20
5550884.577179326
 10
4632633.04924864
 20
5550886.692504508
 10
4632636.409022222
 20
5550901.254817518
 10
4632640.041863159
 20
5550900.853761631
  0
LWPOLYLINE
  5
50
330
2
100
AcDbEntity
  8
d_ogrodzenia_plotki
 48
0.07
100
AcDbPolyline
 90
        6
 70
   128
 43
0.0
 10
4632642.238621023
 20
5550911.31315426
 10
4632639.170645756
 20
5550911.92083032
 10
4632640.111607933
 20
5550916.478081119
 10
4632645.129034777
 20
5550940.87824962
 10
4632647.505034411
 20
5550952.42683977
 10
4632650.740015648
 20
5550953.064241134
  0
LWPOLYLINE
  5
51
330
2
100
AcDbEntity
  8
d_ogrodzenia_plotki
 48
0.07
100
AcDbPolyline
 90
        6
 70
   128
 43
0.0
 10
4632651.490233639
 20
5550956.769045172
 10
4632649.171066385
 20
5550958.066885009
 10
4632650.631969811
 20
5550965.177267663
 10
4632655.324454321
 20
5550989.641737167
 10
4632657.632044895
 20
5551001.241418431
 10
4632660.487949533
 20
5551001.964239254
  0
LWPOLYLINE
  5
52
330
2
100
AcDbEntity
  8
d_ogrodzenia_plotki
 48
0.07
100
AcDbPolyline
 90
        9
 70
   128
 43
0.0
 10
4632661.207692248
 20
5551005.675084228
 10
4632658.86600145
 20
5551007.481113493
 10
4632660.162479595
 20
5551014.075309806
 10
4632664.26957087
 20
5551038.652967665
 10
4632665.957627323
 20
5551047.627244745
 10
4632666.341023913
 20
5551049.688569959
 10
4632667.642166196
 20
5551056.71201231
 10
4632669.031929518
 20
5551064.256617512
 10
4632668.931467565
 20
5551064.553527853
  0
LWPOLYLINE
  5
53
330
2
100
AcDbEntity
  8
d_ogrodzenia_plotki
 48
0.07
100
AcDbPolyline
 90
       13
 70
   128
 43
0.0
 10
4632670.98804757
 20
5551067.725101386
 10
4632671.275125248
 20
5551068.993358724
 10
4632674.464181562
 20
5551087.416340085
 10
4632678.63816248
 20
5551111.978644269
 10
4632679.43816244
 20
5551116.759197578
 10
4632677.298065172
 20
5551119.265904098
 10
4632677.840044727
 20
5551122.18075792
 10
4632680.577131608
 20
5551123.504547213
 10
4632682.802875928
 20
5551136.546774545
 10
4632686.915587521
 20
5551161.116581987
 10
4632688.870247436
 20
5551173.060709147
 10
4632687.883375045
 20
5551173.222211104
 10
4632687.721873089
 20
5551172.235338712
  0
LWPOLYLINE
  5
54
330
2
100
AcDbEntity
  8
d_ogrodzenia_plotki
 48
0.07
100
AcDbPolyline
 90
       30
 70
   128
 43
0.0
 10
4632344.550944832
 20
5549416.36536943
 10
4632344.674810727
 20
5549417.357668398
 10
4632343.682511758
 20
5549417.481534292
 10
4632341.229836432
 20
5549397.83296831
 10
4632338.788314234
 20
5549373.08544661
 10
4632336.958469224
 20
5549360.079993116
 10
4632336.637973399
 20
5549357.802098805
 10
4632335.32575315
 20
5549348.47561522
 10
4632333.041160373
 20
5549333.671729751
 10
4632334.096354055
 20
5549325.001930434
 10
4632331.461716206
 20
5549323.62160133
 10
4632330.997367542
 20
5549320.074011275
 42
-0.4141968024054528
 10
4632319.769759485
 20
5549311.475792084
 10
4632318.873603363
 20
5549311.587906224
 10
4632284.437092535
 20
5549315.896106252
 10
4632284.380017924
 20
5549315.903246606
 42
-0.4136161621927162
 10
4632274.586096905
 20
5549328.688740461
 10
4632274.561637666
 20
5549335.171568883
 10
4632276.448204212
 20
5549343.519446353
 10
4632276.658470809
 20
5549344.969500757
 10
4632278.106676962
 20
5549356.429846662
 10
4632280.312300984
 20
5549373.974951793
 10
4632278.504214817
 20
5549374.818396808
 10
4632279.197894697
 20
5549378.0915423
 10
4632281.143377674
 20
5549378.581597489
 10
4632281.49713459
 20
5549381.395632064
 10
4632285.978626474
 20
5549406.188851693
 10
4632289.096183965
 20
5549426.120421059
 10
4632288.108196514
 20
5549426.274955187
 10
4632287.953662387
 20
5549425.286967735
  0
LWPOLYLINE
  5
55
330
2
100
AcDbEntity
  8
d_ogrodzenia_plotki
 48
0.07
100
AcDbPolyline
 90
        3
 70
   128
 43
0.0
 10
4632427.423467171
 20
5549826.095281868
 10
4632429.323768745
 20
5549825.609531856
 10
4632429.033520956
 20
5549822.32861531
  0
LWPOLYLINE
  5
56
330
2
100
AcDbEntity
  8
d_ogrodzenia_plotki
 48
0.07
100
AcDbPolyline
 90
        3
 70
   128
 43
0.0
 10
4632426.288649272
 20
5549815.355311919
 10
4632427.544070164
 20
5549815.294446177
 10
4632428.888160511
 20
5549819.331444609
  0
LWPOLYLINE
  5
57
330
2
100
AcDbEntity
  8
d_ogrodzenia_plotki
 48
0.07
100
AcDbPolyline
 90
        3
 70
   128
 43
0.0
 10
4632374.509625361
 20
5549828.994838382
 10
4632373.2970921
 20
5549828.959687033
 10
4632371.869772578
 20
5549824.886916605
  0
LWPOLYLINE
  5
58
330
2
100
AcDbEntity
  8
d_ogrodzenia_plotki
 48
0.07
100
AcDbPolyline
 90
        3
 70
   128
 43
0.0
 10
4632373.37480746
 20
5549818.254868431
 10
4632372.126365932
 20
5549818.502539485
 10
4632371.733093461
 20
5549821.890031751
  0
LWPOLYLINE
  5
59
330
2
100
AcDbEntity
  8
d_ogrodzenia_plotki
 48
0.07
100
AcDbPolyline
 90
        2
 70
   128
 43
0.0
 10
4632360.202865683
 20
5549825.419009961
 10
4632349.267333999
 20
5549829.532454902
  0
LWPOLYLINE
  5
5A
330
2
100
AcDbEntity
  8
d_ogrodzenia_plotki
 48
0.07
100
AcDbPolyline
 90
        3
 70
   128
 43
0.0
 10
4632360.066186568
 20
5549822.422125108
 10
4632351.668315684
 20
5549821.642287696
 10
4632344.053869294
 20
5549817.038148006
  0
LWPOLYLINE
  5
5B
330
2
100
AcDbEntity
  8
d_ogrodzenia_plotki
 48
0.07
100
AcDbPolyline
 90
        2
 70
   128
 43
0.0
 10
4632443.839392518
 20
5549821.651900506
 10
4632451.578846978
 20
5549823.025399679
  0
LWPOLYLINE
  5
5C
330
2
100
AcDbEntity
  8
d_ogrodzenia_plotki
 48
0.07
100
AcDbPolyline
 90
        2
 70
   128
 43
0.0
 10
4632443.702417994
 20
5549818.655029141
 10
4632450.050486051
 20
5549815.845216746
  0
LWPOLYLINE
  5
5D
330
2
100
AcDbEntity
  8
d_ogrodzenia_plotki
 48
0.07
100
AcDbPolyline
 90
        7
 70
   128
 43
0.0
 10
4632419.218710484
 20
5549721.704830576
 10
4632418.761917326
 20
5549720.815257639
 10
4632417.872344388
 20
5549721.272050797
 10
4632419.422730758
 20
5549724.291320533
 10
4632420.666917759
 20
5549729.135514435
 10
4632421.921837362
 20
5549733.921511995
 10
4632422.836013975
 20
5549736.089048029
  0
LWPOLYLINE
  5
5E
330
2
100
AcDbEntity
  8
d_ogrodzenia_plotki
 48
0.07
100
AcDbPolyline
 90
        6
 70
   128
 43
0.0
 10
4632381.228698165
 20
5549922.360666024
 10
4632381.461338879
 20
5549923.333228772
 10
4632382.433901628
 20
5549923.100588059
 10
4632381.676079254
 20
5549919.932484767
 10
4632380.517204445
 20
5549915.062964446
 10
4632379.481335318
 20
5549910.432339199
  0
LWPOLYLINE
  5
5F
330
2
100
AcDbEntity
  8
d_ogrodzenia_plotki
 48
0.07
100
AcDbPolyline
 90
       10
 70
   128
 43
0.0
 10
4632378.030061081
 20
5549906.152217945
 10
4632377.791795603
 20
5549905.461830242
 10
4632376.814816769
 20
5549900.578230729
 10
4632374.883216956
 20
5549895.921432287
 10
4632373.601396095
 20
5549891.04376451
 10
4632372.215120563
 20
5549886.249719697
 10
4632370.924696661
 20
5549881.45032468
 10
4632370.001634925
 20
5549876.454450948
 10
4632368.684334183
 20
5549871.628374666
 10
4632367.621232037
 20
5549865.127050629
  0
LWPOLYLINE
  5
60
330
2
100
AcDbEntity
  8
d_ogrodzenia_plotki
 48
0.07
100
AcDbPolyline
 90
       16
 70
   128
 43
0.0
 10
4632348.34838814
 20
5549781.833812992
 10
4632349.079235765
 20
5549780.640925951
 10
4632347.607333184
 20
5549773.787113397
 10
4632346.583372617
 20
5549768.88267082
 10
4632345.569378694
 20
5549763.977350228
 10
4632344.561581679
 20
5549759.07106741
 10
4632343.56000826
 20
5549754.16395694
 10
4632342.556893731
 20
5549749.259636841
 10
4632341.522341397
 20
5549744.364113066
 10
4632340.445441061
 20
5549739.440573935
 10
4632340.055679593
 20
5549734.436478936
 10
4632338.901874539
 20
5549729.563935949
 10
4632338.301858483
 20
5549726.815626403
 10
4632338.24516175
 20
5549724.911478194
 10
4632337.245604742
 20
5549724.941240382
 10
4632337.27536693
 20
5549725.940797391
  0
LWPOLYLINE
  5
61
330
2
100
AcDbEntity
  8
d_ogrodzenia_plotki
 48
0.07
100
AcDbPolyline
 90
       17
 70
   128
 43
0.0
 10
4632468.596111588
 20
5549918.002452963
 10
4632468.665290317
 20
5549918.312762654
 10
4632468.814511351
 20
5549918.978312428
 10
4632467.838736196
 20
5549919.197088219
 10
4632467.689382571
 20
5549918.53094707
 10
4632467.406345039
 20
5549917.261347432
 10
4632466.595887585
 20
5549913.629514072
 10
4632465.279972093
 20
5549908.891874893
 10
4632465.362288895
 20
5549903.738409175
 10
4632464.173236802
 20
5549898.785174301
 10
4632463.066451184
 20
5549893.914248254
 10
4632462.018707834
 20
5549889.028878393
 10
4632461.029559596
 20
5549884.126857603
 10
4632460.069798384
 20
5549879.208344059
 10
4632459.053462031
 20
5549874.299810807
 10
4632458.022834119
 20
5549869.396461876
 10
4632457.205714337
 20
5549865.633032543
  0
LWPOLYLINE
  5
62
330
2
100
AcDbEntity
  8
d_ogrodzenia_furtki
 48
0.5
100
AcDbPolyline
 90
        4
 70
   128
 43
0.0
 10
4632273.765512033
 20
5549334.143172769
 10
4632274.765504919
 20
5549334.14694567
 10
4632274.761732018
 20
5549335.146938562
 42
0.4142135623730951
 10
4632273.765512033
 20
5549334.143172769
 42
0.9999999999999998
  0
LWPOLYLINE
  5
64
330
2
100
AcDbEntity
  8
d_ogrodzenia_furtki
 48
0.5
100
AcDbPolyline
 90
        4
 70
   128
 43
0.0
 10
4632319.947326427
 20
5549310.648998934
 10
4632320.071464323
 20
5549311.641263913
 10
4632319.079199337
 20
5549311.765401809
 42
0.4142135623730951
 10
4632319.947326427
 20
5549310.648998934
 42
0.9999999999999998
  0
LWPOLYLINE
  5
65
330
2
100
AcDbEntity
  8
d_ogrodzenia_plotki
 48
0.07
100
AcDbPolyline
 90
        7
 70
   128
 43
0.0
 10
4632252.993769385
 20
5548591.314829069
 10
4632248.356815759
 20
5548588.087375219
 10
4632248.952982814
 20
5548577.880336218
 10
4632250.717358616
 20
5548552.779433975
 10
4632251.262001392
 20
5548540.701783823
 10
4632251.207309376
 20
5548538.694550203
 10
4632253.992450109
 20
5548538.214882848
  0
LWPOLYLINE
  5
66
330
2
100
AcDbEntity
  8
d_ogrodzenia_plotki
 48
0.07
100
AcDbPolyline
 90
       11
 70
   128
 43
0.0
 10
4632292.010369886
 20
5548646.953207927
 10
4632296.535533291
 20
5548649.899344326
 10
4632296.310727178
 20
5548655.158622105
 10
4632295.496157296
 20
5548678.190014636
 10
4632295.368077916
 20
5548681.458532057
 10
4632294.833835334
 20
5548693.631166166
 10
4632294.0578415
 20
5548694.893114073
 10
4632294.728870401
 20
5548696.18038502
 10
4632294.437502496
 20
5548703.745542338
 10
4632293.932703851
 20
5548717.451013886
 10
4632290.11168106
 20
5548717.747554166
  0
LWPOLYLINE
  5
67
330
2
100
AcDbEntity
  8
d_ogrodzenia_plotki
 48
0.07
100
AcDbPolyline
 90
        8
 70
   128
 43
0.0
 10
4632290.034047452
 20
5548721.526756861
 10
4632294.374540986
 20
5548724.241248093
 10
4632294.242687308
 20
5548729.665313799
 10
4632293.992805331
 20
5548739.944420268
 10
4632293.900498797
 20
5548744.566798355
 10
4632293.725802825
 20
5548754.501077516
 10
4632293.386135886
 20
5548779.84902654
 10
4632289.068600996
 20
5548782.403442836
  0
LWPOLYLINE
  5
68
330
2
100
AcDbEntity
  8
d_ogrodzenia_plotki
 48
0.07
100
AcDbPolyline
 90
        6
 70
   128
 43
0.0
 10
4632289.052381923
 20
5548786.183408038
 10
4632293.32842117
 20
5548788.763329939
 10
4632293.222820424
 20
5548804.193935901
 10
4632293.150600272
 20
5548829.035966057
 10
4632293.162085941
 20
5548829.698450614
 10
4632289.142028747
 20
5548832.148818034
  0
LWPOLYLINE
  5
69
330
2
100
AcDbEntity
  8
d_ogrodzenia_plotki
 48
0.07
100
AcDbPolyline
 90
        5
 70
   128
 43
0.0
 10
4632289.173059277
 20
5548835.928690664
 10
4632293.321035142
 20
5548838.363287881
 10
4632293.620810018
 20
5548853.869181023
 10
4632294.356893818
 20
5548879.070666445
 10
4632289.848144966
 20
5548881.889168594
  0
LWPOLYLINE
  5
6A
330
2
100
AcDbEntity
  8
d_ogrodzenia_plotki
 48
0.07
100
AcDbPolyline
 90
        5
 70
   128
 43
0.0
 10
4632289.926420248
 20
5548885.668358053
 10
4632294.685665607
 20
5548888.37436571
 10
4632295.267315611
 20
5548903.534294254
 10
4632296.163043261
 20
5548928.541801962
 10
4632291.340361251
 20
5548931.635488598
  0
LWPOLYLINE
  5
6B
330
2
100
AcDbEntity
  8
d_ogrodzenia_plotki
 48
0.07
100
AcDbPolyline
 90
        5
 70
   128
 43
0.0
 10
4632291.465338878
 20
5548935.413421971
 10
4632296.624331499
 20
5548938.258576613
 10
4632297.365414193
 20
5548953.172772528
 10
4632298.612918597
 20
5548978.039309023
 10
4632293.739357349
 20
5548981.257620998
  0
LWPOLYLINE
  5
6C
330
2
100
AcDbEntity
  8
d_ogrodzenia_plotki
 48
0.07
100
AcDbPolyline
 90
        5
 70
   128
 43
0.0
 10
4632293.915032763
 20
5548985.033536535
 10
4632299.081702051
 20
5548987.793466087
 10
4632299.830910476
 20
5549002.793220311
 10
4632301.323245693
 20
5549028.541819153
 10
4632297.908730021
 20
5549030.873931459
  0
LWPOLYLINE
  5
6D
330
2
100
AcDbEntity
  8
d_ogrodzenia_plotki
 48
0.07
100
AcDbPolyline
 90
       11
 70
   128
 43
0.0
 10
4632298.12996311
 20
5549034.647451819
 10
4632301.796801209
 20
5549036.566212418
 10
4632302.770476851
 20
5549052.379383005
 10
4632304.326775983
 20
5549072.181520953
 10
4632304.73796603
 20
5549077.136942363
 10
4632304.999787347
 20
5549080.677821321
 10
4632305.166787061
 20
5549082.936330204
 10
4632306.003743436
 20
5549094.255352119
 10
4632306.651101229
 20
5549101.896243384
 10
4632307.919751149
 20
5549116.389997349
 10
4632304.616723796
 20
5549121.377681107
  0
LWPOLYLINE
  5
6E
330
2
100
AcDbEntity
  8
d_ogrodzenia_plotki
 48
0.07
100
AcDbPolyline
 90
       40
 70
   128
 43
0.0
 10
4632308.25473944
 20
5549134.666674473
 10
4632310.459352019
 20
5549135.084412182
 10
4632310.550934251
 20
5549135.997443092
 10
4632310.864809838
 20
5549139.108247005
 10
4632311.961080166
 20
5549149.786739926
 10
4632312.115293124
 20
5549151.266471716
 10
4632314.770798529
 20
5549175.953400547
 10
4632315.580503713
 20
5549183.204884271
 10
4632317.579864354
 20
5549200.616902831
 10
4632320.543046991
 20
5549225.262288023
 10
4632322.81006232
 20
5549243.311981365
 10
4632323.103100743
 20
5549245.60255334
 10
4632323.639714077
 20
5549249.772737767
 10
4632325.925195131
 20
5549250.753212117
 10
4632326.260911485
 20
5549253.570996063
 10
4632326.834991188
 20
5549260.830612743
 10
4632326.363019198
 20
5549266.526934527
 10
4632325.846681076
 20
5549268.491798654
 42
0.4179829061271791
 10
4632315.883860211
 20
5549281.293588889
 10
4632315.095818875
 20
5549281.391290312
 10
4632280.652843746
 20
5549285.732472093
 42
0.3682725305642316
 10
4632268.108742097
 20
5549275.444112947
 10
4632267.905938132
 20
5549273.350745149
 10
4632267.1584644
 20
5549268.75587725
 10
4632264.918285438
 20
5549269.987268846
 10
4632263.654507582
 20
5549267.487565932
 10
4632264.528247827
 20
5549266.802295611
 10
4632264.562348805
 20
5549264.608053881
 10
4632264.65678175
 20
5549258.617624178
 10
4632264.481732844
 20
5549256.555467016
 10
4632264.962935622
 20
5549255.308665685
 10
4632264.840150511
 20
5549253.680038576
 10
4632264.409777371
 20
5549252.853558479
 10
4632264.152294943
 20
5549249.873530309
 10
4632262.795496513
 20
5549231.453708342
 10
4632260.927666332
 20
5549206.338227632
 10
4632259.627426813
 20
5549188.608069151
 10
4632259.108469768
 20
5549181.214682952
 10
4632259.661195694
 20
5549154.662706891
 10
4632260.808137659
 20
5549150.240873244
  0
LWPOLYLINE
  5
6F
330
2
100
AcDbEntity
  8
d_ogrodzenia_plotki
 48
0.07
100
AcDbPolyline
 90
       16
 70
   128
 43
0.0
 10
4632257.170122033
 20
5549136.951879857
 10
4632258.089402966
 20
5549135.3672388
 10
4632256.959227363
 20
5549120.366573096
 10
4632256.503896697
 20
5549112.464593044
 10
4632253.838693363
 20
5549111.906192979
 10
4632253.733711551
 20
5549109.216675391
 10
4632256.281454332
 20
5549108.604244387
 10
4632256.115721822
 20
5549105.728059906
 10
4632255.575339811
 20
5549098.053044268
 10
4632253.245464848
 20
5549087.335847396
 10
4632253.723807227
 20
5549086.005666553
 10
4632252.589151843
 20
5549080.786362796
 10
4632252.318016536
 20
5549075.744738355
 10
4632251.299806972
 20
5549055.641187615
 10
4632250.445208659
 20
5549039.223116705
 10
4632253.279759269
 20
5549037.276919253
  0
LWPOLYLINE
  5
70
330
2
100
AcDbEntity
  8
d_ogrodzenia_plotki
 48
0.07
100
AcDbPolyline
 90
        6
 70
   128
 43
0.0
 10
4632253.058526191
 20
5549033.503398891
 10
4632250.07793019
 20
5549031.933235339
 10
4632250.0088911
 20
5549030.51519281
 10
4632248.968713316
 20
5549005.378583545
 10
4632248.343735293
 20
5548989.537727514
 10
4632252.207351647
 20
5548986.973996765
  0
LWPOLYLINE
  5
71
330
2
100
AcDbEntity
  8
d_ogrodzenia_plotki
 48
0.07
100
AcDbPolyline
 90
        6
 70
   128
 43
0.0
 10
4632252.031676243
 20
5548983.198081227
 10
4632248.030598088
 20
5548981.048055909
 10
4632248.00291212
 20
5548980.240593529
 10
4632247.319886986
 20
5548955.094762777
 10
4632246.897923346
 20
5548938.573775976
 10
4632249.626983413
 20
5548936.79747449
  0
LWPOLYLINE
  5
72
330
2
100
AcDbEntity
  8
d_ogrodzenia_plotki
 48
0.07
100
AcDbPolyline
 90
       11
 70
   128
 43
0.0
 10
4632249.502005792
 20
5548933.019541115
 10
4632246.706382423
 20
5548931.451734175
 10
4632246.663991871
 20
5548929.951467585
 10
4632246.603120575
 20
5548925.883651782
 10
4632246.939461493
 20
5548924.689728925
 10
4632246.569310047
 20
5548923.624212429
 10
4632246.287649289
 20
5548904.80180934
 10
4632246.183564964
 20
5548892.610223866
 10
4632245.460002217
 20
5548891.898045076
 10
4632245.405645114
 20
5548888.440866295
 10
4632248.435319917
 20
5548886.527729478
  0
LWPOLYLINE
  5
73
330
2
100
AcDbEntity
  8
d_ogrodzenia_plotki
 48
0.07
100
AcDbPolyline
 90
        8
 70
   128
 43
0.0
 10
4632248.357044643
 20
5548882.748540018
 10
4632245.589837069
 20
5548881.15121245
 10
4632245.597260086
 20
5548877.121601195
 10
4632245.638920393
 20
5548854.50621957
 10
4632245.593689287
 20
5548848.386131336
 10
4632244.249809393
 20
5548840.938903485
 10
4632244.228814289
 20
5548838.377925623
 10
4632247.674458533
 20
5548836.269369707
  0
LWPOLYLINE
  5
74
330
2
100
AcDbEntity
  8
d_ogrodzenia_plotki
 48
0.07
100
AcDbPolyline
 90
       12
 70
   128
 43
0.0
 10
4632247.643428009
 20
5548832.489497076
 10
4632244.163720884
 20
5548830.43784674
 10
4632244.142704708
 20
5548827.87429835
 10
4632245.204809605
 20
5548825.732394391
 10
4632245.196007896
 20
5548822.303905721
 10
4632245.922487007
 20
5548820.724810318
 10
4632245.18770471
 20
5548819.069604096
 10
4632245.149589277
 20
5548804.222675543
 10
4632245.164857793
 20
5548792.028886365
 10
4632244.479836871
 20
5548791.342316729
 10
4632244.495387795
 20
5548787.718068329
 10
4632247.552764838
 20
5548786.005341475
  0
LWPOLYLINE
  5
75
330
2
100
AcDbEntity
  8
d_ogrodzenia_plotki
 48
0.07
100
AcDbPolyline
 90
        9
 70
   128
 43
0.0
 10
4632247.568983916
 20
5548782.225376272
 10
4632244.526903132
 20
5548780.373204392
 10
4632244.541667703
 20
5548776.932220721
 10
4632245.162256485
 20
5548776.315134828
 10
4632245.30017066
 20
5548753.932792224
 10
4632245.376622499
 20
5548743.874817979
 10
4632245.417980418
 20
5548739.191668603
 10
4632245.694565453
 20
5548722.317493152
 10
4632248.542800909
 20
5548720.674430188
  0
LWPOLYLINE
  5
76
330
2
100
AcDbEntity
  8
d_ogrodzenia_plotki
 48
0.07
100
AcDbPolyline
 90
       13
 70
   128
 43
0.0
 10
4632248.620434523
 20
5548716.895227494
 10
4632245.610539958
 20
5548716.349847616
 10
4632245.84081834
 20
5548702.551472373
 10
4632245.895631246
 20
5548695.686151822
 10
4632246.656820234
 20
5548694.287724446
 10
4632246.666001233
 20
5548693.137803598
 10
4632245.926208466
 20
5548691.856352836
 10
4632246.01808918
 20
5548680.348286803
 10
4632245.285884572
 20
5548679.741705857
 10
4632245.338535053
 20
5548677.101338709
 10
4632245.968256186
 20
5548676.689852299
 10
4632246.604171316
 20
5548647.476898841
 10
4632250.54239087
 20
5548645.323264073
  0
LWPOLYLINE
  5
77
330
2
100
AcDbEntity
  8
d_ogrodzenia_plotki
 48
0.07
100
AcDbPolyline
 90
       15
 70
   128
 43
0.0
 10
4632306.2438442
 20
5548464.612677147
 10
4632311.624467189
 20
5548461.976300786
 10
4632312.113479556
 20
5548456.978532
 10
4632312.926360237
 20
5548450.025143622
 10
4632314.647368982
 20
5548435.864021355
 10
4632315.098649953
 20
5548432.148082738
 10
4632315.765522807
 20
5548426.233112106
 10
4632316.122685786
 20
5548417.98122684
 10
4632316.046983194
 20
5548415.155709845
 10
4632316.885532794
 20
5548407.25066242
 10
4632318.656718998
 20
5548398.979727188
 10
4632318.976213586
 20
5548395.763078933
 10
4632319.06882181
 20
5548393.818959268
 10
4632331.001910116
 20
5548381.29450393
 42
-0.4119244166740307
 10
4632331.720572566
 20
5548369.342380117
 42
-0.4119244166740307
  0
LWPOLYLINE
  5
78
330
2
100
AcDbEntity
  8
d_ogrodzenia_furtki
 48
0.5
100
AcDbPolyline
 90
        4
 70
   128
 43
0.0
 10
4632316.264867161
 20
5549282.050508323
 10
4632316.140729264
 20
5549281.058243344
 10
4632315.148464278
 20
5549281.182381242
 42
-0.4142135623730951
 10
4632316.264867161
 20
5549282.050508323
 42
-0.9999999999999998
  0
LWPOLYLINE
  5
79
330
2
100
AcDbEntity
  8
d_ogrodzenia_furtki
 48
0.5
100
AcDbPolyline
 90
        4
 70
   128
 43
0.0
 10
4632325.759227575
 20
5549251.10039794
 10
4632325.883365471
 20
5549252.09266292
 10
4632324.891100486
 20
5549252.216800816
 42
0.4142135623730951
 10
4632325.759227575
 20
5549251.10039794
 42
0.9999999999999998
  0
LWPOLYLINE
  5
7A
330
2
100
AcDbEntity
  8
d_ogrodzenia_furtki
 48
0.5
100
AcDbPolyline
 90
        4
 70
   128
 43
0.0
 10
4632264.314103307
 20
5549249.275801754
 10
4632264.387563978
 20
5549250.273099873
 10
4632265.384862103
 20
5549250.199639202
 42
-0.4142135623730951
 10
4632264.314103307
 20
5549249.275801754
 42
-0.9999999999999998
  0
LWPOLYLINE
  5
7B
330
2
100
AcDbEntity
  8
d_ogrodzenia_furtki
 48
0.5
100
AcDbPolyline
 90
        4
 70
   128
 43
0.0
 10
4632267.358693873
 20
5549268.741126504
 10
4632267.519258972
 20
5549269.72815176
 10
4632266.53223371
 20
5549269.88871686
 42
0.4142135623730951
 10
4632267.358693873
 20
5549268.741126504
 42
0.9999999999999998
  0
LWPOLYLINE
  5
7C
330
2
100
AcDbEntity
  8
d_ogrodzenia_plotki
 48
0.07
100
AcDbPolyline
 90
       14
 70
   128
 43
0.0
 10
4632254.705662926
 20
5548527.551113968
 10
4632251.803762302
 20
5548526.498661924
 10
4632252.949884426
 20
5548518.963902827
 10
4632254.513209268
 20
5548512.619859836
 10
4632255.053828497
 20
5548502.665929877
 10
4632255.185946276
 20
5548499.889204353
 10
4632254.64292113
 20
5548499.623100156
 10
4632254.753588378
 20
5548497.071169541
 10
4632255.330883152
 20
5548496.888197925
 10
4632255.533382473
 20
5548492.708299792
 10
4632255.010216558
 20
5548485.012916542
 10
4632253.925991753
 20
5548477.315939775
 10
4632253.549342349
 20
5548466.996841613
 10
4632258.59376415
 20
5548464.521730791
  0
LWPOLYLINE
  5
7D
330
2
100
AcDbEntity
  8
d_ogrodzenia_plotki
 48
0.07
100
AcDbPolyline
 90
        6
 70
   128
 43
0.0
 10
4632258.900815917
 20
5548460.754222436
 10
4632254.030211515
 20
5548457.289851332
 10
4632254.292815727
 20
5548452.282051596
 10
4632254.35024411
 20
5548450.039103507
 10
4632254.618411959
 20
5548447.379270116
 10
4632249.675196019
 20
5548441.961962264
  0
LWPOLYLINE
  5
7E
330
2
100
AcDbEntity
  8
d_ogrodzenia_furtki
 48
0.5
100
AcDbPolyline
 90
        4
 70
   128
 43
0.0
 10
4632309.078114696
 20
5547927.359958684
 10
4632308.997100258
 20
5547928.356671615
 10
4632308.000387321
 20
5547928.275657176
 42
0.4142135623730951
 10
4632309.078114696
 20
5547927.359958684
 42
0.9999999999999998
  0
LWPOLYLINE
  5
7F
330
2
100
AcDbEntity
  8
d_ogrodzenia_furtki
 48
0.5
100
AcDbPolyline
 90
        4
 70
   128
 43
0.0
 10
4632345.474384091
 20
5547922.958934631
 10
4632344.501928074
 20
5547923.192021094
 10
4632344.268841609
 20
5547922.219565069
 42
0.4142135623730951
 10
4632345.474384091
 20
5547922.958934631
 42
0.9999999999999998
  0
LWPOLYLINE
  5
80
330
2
100
AcDbEntity
  8
d_ogrodzenia_plotki
 48
0.07
100
AcDbPolyline
 90
       21
 70
   128
 43
0.0
 10
4632365.392052497
 20
5547657.615127995
 10
4632366.188779186
 20
5547657.680061363
 42
0.4127755224837629
 10
4632378.323814149
 20
5547671.897695177
 10
4632380.483386386
 20
5547675.45237282
 10
4632379.84001622
 20
5547683.336652855
 10
4632377.757436922
 20
5547683.870937164
 10
4632377.591853045
 20
5547687.082409937
 10
4632377.141251537
 20
5547688.680565125
 10
4632377.4429727
 20
5547689.969920388
 10
4632375.138795538
 20
5547734.65906759
 10
4632373.817247203
 20
5547759.636486691
 10
4632373.299556724
 20
5547768.837492933
 10
4632372.043473197
 20
5547784.603150367
 10
4632369.81903442
 20
5547809.523926953
 10
4632366.840597513
 20
5547834.27841864
 10
4632367.233688602
 20
5547838.63084472
 10
4632367.685079369
 20
5547840.367238245
 10
4632367.767445646
 20
5547841.146070608
 10
4632365.758461308
 20
5547841.463014646
 42
0.410861778679077
 10
4632350.950675175
 20
5547853.893714749
 10
4632350.153312412
 20
5547853.82872972
  0
LWPOLYLINE
  5
81
330
2
100
AcDbEntity
  8
d_ogrodzenia_plotki
 48
0.07
100
AcDbPolyline
 90
       25
 70
   128
 43
0.0
 10
4632332.099437586
 20
5547654.942906927
 10
4632331.300749289
 20
5547654.877813689
 42
-0.4140761729386796
 10
4632316.803159066
 20
5547667.184525534
 10
4632315.496405046
 20
5547676.1863563
 10
4632314.946105875
 20
5547681.633815484
 10
4632315.614283109
 20
5547682.481304637
 10
4632315.454355115
 20
5547684.064377566
 10
4632314.915860773
 20
5547684.420228153
 10
4632312.885819657
 20
5547704.514915899
 10
4632309.922794688
 20
5547729.348625267
 10
4632307.183123394
 20
5547754.22322006
 10
4632306.483210279
 20
5547763.407864539
 10
4632305.25441063
 20
5547779.159688709
 10
4632303.32012067
 20
5547804.092661491
 10
4632301.749559495
 20
5547829.067326349
 10
4632301.554218737
 20
5547833.459261316
 10
4632301.179372766
 20
5547834.98705285
 10
4632300.834796622
 20
5547835.906373842
 10
4632300.652019472
 20
5547836.899193379
 10
4632300.616868483
 20
5547837.454775051
 10
4632300.524755567
 20
5547838.913081157
 10
4632300.373433558
 20
5547840.982164398
 10
4632301.398640912
 20
5547844.517370144
 42
-0.4134221196250418
 10
4632313.897681708
 20
5547859.194282892
 10
4632316.364735729
 20
5547859.084355708
  0
LWPOLYLINE
  5
82
330
2
100
AcDbEntity
  8
d_ogrodzenia_plotki
 48
0.07
100
AcDbPolyline
 90
        7
 70
   128
 43
0.0
 10
4632250.69085323
 20
5548641.546180686
 10
4632246.511302281
 20
5548638.820527762
 10
4632246.437546337
 20
5548630.963574519
 10
4632246.611314331
 20
5548628.168235381
 10
4632247.084869162
 20
5548602.988550809
 10
4632247.835243003
 20
5548597.845833305
 10
4632252.798087761
 20
5548595.089760683
  0
LWPOLYLINE
  5
83
330
2
100
AcDbEntity
  8
d_ogrodzenia_plotki
 48
0.07
100
AcDbPolyline
 90
       17
 70
   128
 43
0.0
 10
4632265.527806049
 20
5548344.688979946
 10
4632263.767365912
 20
5548344.930544844
 10
4632263.464681774
 20
5548348.644462622
 10
4632263.142141152
 20
5548353.660598682
 10
4632260.913240192
 20
5548368.703535728
 10
4632260.135957282
 20
5548377.469261397
 10
4632259.616359679
 20
5548385.666875877
 10
4632258.324892098
 20
5548394.005376207
 10
4632257.990131551
 20
5548399.219432146
 10
4632255.90678787
 20
5548402.980308229
 10
4632255.46475419
 20
5548406.510782299
 10
4632257.414425008
 20
5548408.141858574
 42
0.0623764753296857
 10
4632255.92286309
 20
5548411.212913881
 10
4632249.884236343
 20
5548417.723151954
 10
4632243.403287907
 20
5548423.849621682
 42
-0.3200630946375455
 10
4632242.876015228
 20
5548434.139791683
 10
4632244.110489137
 20
5548435.533470047
  0
LWPOLYLINE
  5
84
330
2
100
AcDbEntity
  8
d_ogrodzenia_plotki
 48
0.07
100
AcDbPolyline
 90
        8
 70
   128
 43
0.0
 10
4632265.834857816
 20
5548340.921471592
 10
4632263.405727646
 20
5548340.134855752
 10
4632263.693050975
 20
5548336.609414246
 10
4632264.417399905
 20
5548330.509209624
 10
4632264.690644086
 20
5548327.685990048
 10
4632265.47457987
 20
5548307.451440924
 10
4632265.809089445
 20
5548296.710278557
 10
4632269.490776137
 20
5548294.888830469
  0
LWPOLYLINE
  5
85
330
2
100
AcDbEntity
  8
d_ogrodzenia_plotki
 48
0.07
100
AcDbPolyline
 90
       10
 70
   128
 43
0.0
 10
4632269.797827902
 20
5548291.121322114
 10
4632266.56465289
 20
5548288.801117944
 10
4632266.918927048
 20
5548278.928172277
 10
4632266.940073361
 20
5548278.338864823
 10
4632267.442003561
 20
5548270.268952411
 10
4632268.202297168
 20
5548258.473892118
 10
4632268.50862448
 20
5548253.721584481
 10
4632268.571549749
 20
5548252.745373011
 10
4632269.003215315
 20
5548246.381611326
 10
4632272.039261784
 20
5548244.869857286
  0
LWPOLYLINE
  5
86
330
2
100
AcDbEntity
  8
d_ogrodzenia_plotki
 48
0.07
100
AcDbPolyline
 90
       20
 70
   128
 43
0.0
 10
4632272.346313552
 20
5548241.102348931
 10
4632269.562754358
 20
5548239.096317417
 10
4632270.765155342
 20
5548231.356965021
 10
4632271.156567757
 20
5548228.008914949
 10
4632271.700068779
 20
5548220.633246013
 10
4632272.467368311
 20
5548210.255533956
 10
4632272.796925111
 20
5548205.798266581
 10
4632272.974094949
 20
5548203.402873304
 10
4632273.061677249
 20
5548202.319989525
 10
4632273.187445908
 20
5548200.858797274
 10
4632273.407724951
 20
5548198.299574375
 10
4632273.609708837
 20
5548195.95290636
 10
4632274.146526916
 20
5548189.716102807
 10
4632273.707685691
 20
5548189.036059148
 10
4632273.842178523
 20
5548187.421525334
 10
4632274.653802468
 20
5548177.992001086
 10
4632276.204864059
 20
5548153.031767356
 10
4632277.901036013
 20
5548143.135697777
 10
4632276.91540883
 20
5548142.966762709
 10
4632276.746473762
 20
5548143.952389892
  0
LWPOLYLINE
  5
87
330
2
100
AcDbEntity
  8
d_ogrodzenia_plotki
 48
0.07
100
AcDbPolyline
 90
        6
 70
   128
 43
0.0
 10
4632294.242442809
 20
5548597.238117089
 10
4632299.315987161
 20
5548600.33184281
 10
4632298.930059847
 20
5548605.554141857
 10
4632297.265932331
 20
5548630.341882476
 10
4632296.742384436
 20
5548641.004520796
 10
4632292.158832239
 20
5548643.17612454
  0
LWPOLYLINE
  5
88
330
2
100
AcDbEntity
  8
d_ogrodzenia_plotki
 48
0.07
100
AcDbPolyline
 90
        6
 70
   128
 43
0.0
 10
4632299.256930239
 20
5548541.242255989
 10
4632303.830791158
 20
5548542.730776875
 10
4632302.807392695
 20
5548556.014703089
 10
4632300.823862914
 20
5548580.7818392
 10
4632300.037672293
 20
5548590.84122335
 10
4632294.438124425
 20
5548593.463185474
  0
LWPOLYLINE
  5
89
330
2
100
AcDbEntity
  8
d_ogrodzenia_plotki
 48
0.07
100
AcDbPolyline
 90
        8
 70
   128
 43
0.0
 10
4632305.93679244
 20
5548468.380185503
 10
4632310.503927115
 20
5548471.344966357
 10
4632309.472327194
 20
5548481.818215162
 10
4632307.810317668
 20
5548496.653412808
 10
4632306.287222569
 20
5548506.472182284
 10
4632305.937620956
 20
5548516.380207005
 10
4632304.817233581
 20
5548530.324101927
 10
4632299.970143058
 20
5548530.57848711
  0
LWPOLYLINE
  5
8A
330
2
100
AcDbEntity
  8
d_ogrodzenia_plotki
 48
0.07
100
AcDbPolyline
 90
        4
 70
   128
 43
0.0
 10
4632319.076679332
 20
5548349.05321074
 10
4632322.47578224
 20
5548351.214387301
 10
4632322.59604286
 20
5548357.312677893
 10
4632326.093431029
 20
5548361.910012947
  0
LWPOLYLINE
  5
8B
330
2
100
AcDbEntity
  8
d_ogrodzenia_plotki
 48
0.07
100
AcDbPolyline
 90
        6
 70
   128
 43
0.0
 10
4632319.383731092
 20
5548345.285702384
 10
4632322.597058476
 20
5548343.993146034
 10
4632322.686739473
 20
5548342.419066394
 10
4632322.584218626
 20
5548332.39301069
 10
4632325.501974521
 20
5548307.55655687
 10
4632326.135260511
 20
5548301.158328029
  0
LWPOLYLINE
  5
8C
330
2
100
AcDbEntity
  8
d_ogrodzenia_plotki
 48
0.07
100
AcDbPolyline
 90
        2
 70
   128
 43
0.0
 10
4632323.211460164
 20
5548299.267063827
 10
4632326.135260511
 20
5548301.158328029
  0
LWPOLYLINE
  5
8D
330
2
100
AcDbEntity
  8
d_ogrodzenia_plotki
 48
0.07
100
AcDbPolyline
 90
       19
 70
   128
 43
0.0
 10
4632339.877372159
 20
5548149.208097332
 10
4632339.972334778
 20
5548148.212616494
 10
4632338.976853939
 20
5548148.117653875
 10
4632338.172252811
 20
5548156.552183315
 10
4632339.331114608
 20
5548158.97484975
 10
4632337.848142062
 20
5548160.761770656
 10
4632336.365763881
 20
5548183.017349187
 10
4632335.489255825
 20
5548193.296742883
 10
4632334.687324988
 20
5548193.873852625
 10
4632334.554077913
 20
5548195.43652981
 10
4632335.254545315
 20
5548196.049349329
 10
4632334.242125028
 20
5548207.922676271
 10
4632333.959545213
 20
5548212.264732351
 10
4632333.917941441
 20
5548212.901980847
 10
4632332.479562555
 20
5548232.859487552
 10
4632332.110437672
 20
5548236.907069321
 10
4632331.66531558
 20
5548241.813516925
 10
4632331.453089062
 20
5548244.509341158
 10
4632329.03893
 20
5548245.722794661
  0
LWPOLYLINE
  5
8E
330
2
100
AcDbEntity
  8
d_ogrodzenia_plotki
 48
0.07
100
AcDbPolyline
 90
        9
 70
   128
 43
0.0
 10
4632328.73187824
 20
5548249.490303017
 10
4632330.934974587
 20
5548251.090731451
 10
4632330.723381137
 20
5548253.778514045
 10
4632330.266510447
 20
5548257.808463504
 10
4632329.031416524
 20
5548266.315040641
 10
4632328.986837144
 20
5548266.765404429
 10
4632327.715553511
 20
5548282.654129711
 10
4632326.575672983
 20
5548294.170595539
 10
4632323.518511923
 20
5548295.499555471
  0
LWPOLYLINE
  5
8F
330
2
100
AcDbEntity
  8
d_ogrodzenia_furtki
 48
0.5
100
AcDbPolyline
 90
        4
 70
   128
 43
0.0
 10
4632313.814514014
 20
5547859.97296731
 10
4632313.915640605
 20
5547858.978093741
 10
4632312.920767029
 20
5547858.876967151
 42
-0.4142135623730951
 10
4632313.814514014
 20
5547859.97296731
 42
-0.9999999999999998
  0
LWPOLYLINE
  5
90
330
2
100
AcDbEntity
  8
d_ogrodzenia_furtki
 48
0.5
100
AcDbPolyline
 90
        4
 70
   128
 43
0.0
 10
4632351.313017184
 20
5547853.719178327
 10
4632350.316051979
 20
5547853.641329862
 10
4632350.238203512
 20
5547854.638295075
 42
-0.4142135623730951
 10
4632351.313017184
 20
5547853.719178327
 42
-0.9999999999999998
  0
LWPOLYLINE
  5
91
330
2
100
AcDbEntity
  8
d_ogrodzenia_furtki
 48
0.5
100
AcDbPolyline
 90
        4
 70
   128
 43
0.0
 10
4632332.079212659
 20
5547654.135941835
 10
4632332.002747044
 20
5547655.133014057
 10
4632331.005674816
 20
5547655.056548438
 42
0.4142135623730951
 10
4632332.079212659
 20
5547654.135941835
 42
0.9999999999999998
  0
LWPOLYLINE
  5
92
330
2
100
AcDbEntity
  8
d_ogrodzenia_furtki
 48
0.5
100
AcDbPolyline
 90
        4
 70
   128
 43
0.0
 10
4632365.542466185
 20
5547656.824745681
 10
4632365.456472405
 20
5547657.821041358
 10
4632366.452768088
 20
5547657.907035136
 42
-0.4142135623730951
 10
4632365.542466185
 20
5547656.824745681
 42
-0.9999999999999998
  0
LWPOLYLINE
  5
93
330
2
100
AcDbEntity
  8
d_ogrodzenia_plotki
 48
0.07
100
AcDbPolyline
 90
       18
 70
   128
 43
0.0
 10
4632334.320367096
 20
5547627.692297125
 10
4632333.424688491
 20
5547627.619299161
 42
0.4135601121648591
 10
4632323.398392177
 20
5547615.840366709
 10
4632322.613646704
 20
5547611.000403495
 10
4632323.617956553
 20
5547607.943766823
 10
4632323.843976513
 20
5547605.08992202
 10
4632324.064977589
 20
5547602.948772416
 10
4632325.100931669
 20
5547601.223922153
 10
4632324.427307437
 20
5547599.43837136
 10
4632324.739456185
 20
5547596.414145503
 10
4632325.069361479
 20
5547593.529381458
 10
4632326.707032996
 20
5547580.239424838
 10
4632327.567372457
 20
5547567.734708215
 10
4632329.172424179
 20
5547555.319450551
 10
4632332.164017577
 20
5547530.487784428
 10
4632333.852617001
 20
5547515.609150517
 10
4632332.858995616
 20
5547515.496382874
 10
4632332.746227972
 20
5547516.490004259
  0
LWPOLYLINE
  5
94
330
2
100
AcDbEntity
  8
d_ogrodzenia_furtki
 48
0.5
100
AcDbPolyline
 90
        4
 70
   128
 43
0.0
 10
4632379.792111328
 20
5547672.773753455
 10
4632378.937470506
 20
5547673.292973132
 10
4632379.456690189
 20
5547674.147613957
 42
-0.4142135623730951
 10
4632379.792111328
 20
5547672.773753455
 42
-0.9999999999999998
  0
LWPOLYLINE
  5
95
330
2
100
AcDbEntity
  8
d_ogrodzenia_plotki
 48
0.07
100
AcDbPolyline
 90
       44
 70
   129
 43
0.0
 10
4632228.549152447
 20
5549137.451737037
 10
4632232.665631895
 20
5549136.022331616
 10
4632239.811951005
 20
5549133.589308497
 10
4632240.652197195
 20
5549133.30745122
 10
4632240.735038982
 20
5549133.278680417
 10
4632241.4358924
 20
5549132.918751344
 10
4632242.045182691
 20
5549132.40806314
 10
4632242.484340263
 20
5549131.849313353
 10
4632242.804729537
 20
5549131.214168577
 10
4632242.993442962
 20
5549130.527683508
 10
4632243.042469101
 20
5549129.82753612
 10
4632242.797520145
 20
5549121.392978867
 10
4632242.564583582
 20
5549113.832436423
 10
4632244.00548104
 20
5549112.900555741
 10
4632243.856066237
 20
5549109.42058046
 10
4632242.4049109
 20
5549108.649857686
 10
4632242.353253898
 20
5549106.973199663
 10
4632242.319340224
 20
5549105.92257827
 10
4632242.196482547
 20
5549105.074155716
 10
4632241.883980135
 20
5549104.262937828
 10
4632241.399135101
 20
5549103.543001311
 10
4632240.764084007
 20
5549102.948788682
 10
4632240.013250831
 20
5549102.512994806
 10
4632239.182414759
 20
5549102.256126291
 10
4632238.315241939
 20
5549102.191535669
 10
4632237.463890383
 20
5549102.320219803
 10
4632237.168303339
 20
5549102.410954738
 10
4632230.970656946
 20
5549104.58342175
 10
4632227.983042975
 20
5549105.636389144
 10
4632220.575247081
 20
5549108.159533902
 10
4632220.058449775
 20
5549108.378868299
 10
4632219.719856447
 20
5549108.56720754
 10
4632219.194364232
 20
5549108.958252226
 10
4632218.740965758
 20
5549109.435386478
 10
4632218.37558894
 20
5549109.982895247
 10
4632218.108796117
 20
5549110.585512838
 10
4632217.949093783
 20
5549111.223665748
 10
4632217.900446467
 20
5549111.881647953
 10
4632217.964673706
 20
5549112.538403078
 10
4632218.137217598
 20
5549113.166236382
 10
4632220.512070527
 20
5549119.605274264
 10
4632225.663151886
 20
5549133.705419076
 10
4632225.863206652
 20
5549134.253032481
 10
4632226.593420766
 20
5549135.743818421
  0
LWPOLYLINE
  5
96
330
2
100
AcDbEntity
  8
d_ogrodzenia_plotki
 48
0.07
100
AcDbPolyline
 90
       33
 70
   128
 43
0.0
 10
4632349.321083699
 20
5548369.046534048
 10
4632349.609752113
 20
5548369.99013776
 10
4632349.62094955
 20
5548370.031107928
 10
4632350.636239928
 20
5548375.461437368
 10
4632350.712998788
 20
5548381.995433324
 10
4632350.580955649
 20
5548383.31115828
 10
4632349.462626652
 20
5548388.506952155
 10
4632346.957024721
 20
5548394.558621765
 10
4632346.207402647
 20
5548395.873916892
 10
4632344.025185051
 20
5548400.074707412
 10
4632342.221964251
 20
5548402.327827132
 10
4632341.523108443
 20
5548403.22168066
 10
4632340.797512692
 20
5548404.149933005
 10
4632338.157107593
 20
5548407.889257259
 10
4632337.391883904
 20
5548409.247299026
 10
4632337.370645303
 20
5548409.274350517
 10
4632335.86447592
 20
5548411.462155725
 10
4632334.185990893
 20
5548414.280240081
 10
4632333.914916197
 20
5548414.957374127
 10
4632332.574079499
 20
5548423.267299053
 10
4632331.778776046
 20
5548427.630525748
 10
4632330.870294729
 20
5548432.205824208
 10
4632330.366394051
 20
5548436.202589989
 10
4632330.291522591
 20
5548437.037141987
 10
4632329.826544766
 20
5548442.020044852
 10
4632329.321916282
 20
5548447.008963667
 10
4632328.665540761
 20
5548451.978926881
 10
4632328.012211719
 20
5548456.935116395
 10
4632327.395541354
 20
5548461.895132358
 10
4632326.779710552
 20
5548466.848395511
 10
4632326.290542327
 20
5548471.814879714
 10
4632327.285726815
 20
5548471.912899279
 10
4632327.383746382
 20
5548470.917714793
  0
LWPOLYLINE
  5
97
330
2
100
AcDbEntity
  8
d_ogrodzenia_plotki
 48
0.07
100
AcDbPolyline
 90
        5
 70
   128
 43
0.0
 10
4632349.321083699
 20
5548369.046534048
 10
4632348.801452137
 20
5548367.551187745
 42
-0.0120394028394011
 10
4632348.227000389
 20
5548366.018160686
 42
0.3939189156396797
 10
4632350.189342937
 20
5548360.927194424
 10
4632353.406210366
 20
5548359.628705038
  0
LWPOLYLINE
  5
98
330
2
100
AcDbEntity
  8
d_ogrodzenia_furtki
 48
0.5
100
AcDbPolyline
 90
        4
 70
   128
 43
0.0
 10
4632334.105131856
 20
5547628.480031197
 10
4632334.196537656
 20
5547627.484217466
 10
4632333.20072392
 20
5547627.392811668
 42
-0.4142135623730951
 10
4632334.105131856
 20
5547628.480031197
 42
-0.9999999999999998
  0
LWPOLYLINE
  5
99
330
2
100
AcDbEntity
  8
d_ogrodzenia_furtki
 48
0.5
100
AcDbPolyline
 90
        4
 70
   128
 43
0.0
 10
4632367.646737844
 20
5547631.21040196
 10
4632367.721490074
 20
5547630.21319982
 10
4632368.718692219
 20
5547630.28795205
 42
0.4142135623730951
 10
4632367.646737844
 20
5547631.21040196
 42
0.9999999999999998
  0
LWPOLYLINE
  5
9A
330
2
100
AcDbEntity
  8
d_ogrodzenia_plotki
 48
0.07
100
AcDbPolyline
 90
       18
 70
   128
 43
0.0
 10
4632367.609652435
 20
5547630.40537188
 10
4632368.408355787
 20
5547630.470466344
 42
-0.4133626697890993
 10
4632380.747856906
 20
5547620.021555169
 10
4632382.402878353
 20
5547616.210086909
 10
4632382.252463852
 20
5547615.197439781
 10
4632381.86641843
 20
5547612.59853574
 10
4632382.053831691
 20
5547609.821922967
 10
4632382.606871138
 20
5547601.429707295
 10
4632384.281682387
 20
5547601.31579119
 10
4632384.467136196
 20
5547598.500927972
 10
4632382.758893108
 20
5547597.945406109
 10
4632383.053919871
 20
5547585.929944087
 10
4632383.107163274
 20
5547584.810820837
 10
4632384.510600457
 20
5547559.844345122
 10
4632385.805965255
 20
5547534.865062106
 10
4632386.589428775
 20
5547519.907198355
 10
4632387.588059862
 20
5547519.95950469
 10
4632387.535753528
 20
5547520.958135777
  0
LWPOLYLINE
  5
9B
330
2
100
AcDbEntity
  8
d_ogrodzenia_furtki
 48
0.5
100
AcDbPolyline
 90
        4
 70
   128
 43
0.0
 10
4633526.943399558
 20
5555398.009242802
 10
4633527.33258873
 20
5555398.930400656
 10
4633528.253746591
 20
5555398.541211481
 42
-0.4142135623730951
 10
4633526.943399558
 20
5555398.009242802
 42
-0.9999999999999998
  0
LWPOLYLINE
  5
9C
330
2
100
AcDbEntity
  8
d_ogrodzenia_stop_rynny
 48
0.03
100
AcDbPolyline
 90
        2
 70
   128
 43
0.0
 10
4632378.030061081
 20
5549906.152217945
 10
4632379.481335318
 20
5549910.432339199
  0
LWPOLYLINE
  5
9E
330
2
100
AcDbEntity
  8
d_ogrodzenia_stop_rynny
 48
0.03
100
AcDbPolyline
 90
        2
 70
   128
 43
0.0
 10
4632378.219469067
 20
5549906.087994781
 10
4632379.670743304
 20
5549910.368116035
  0
LWPOLYLINE
  5
9F
330
2
100
AcDbEntity
  8
d_ogrodzenia_stop_rynny
 48
0.03
100
AcDbPolyline
 90
        2
 70
   128
 43
0.0
 10
4632377.840653095
 20
5549906.21644111
 10
4632379.291927333
 20
5549910.496562364
  0
LWPOLYLINE
  5
A0
330
2
100
AcDbEntity
  8
d_ogrodzenia_brama_5m
 48
0.1
100
AcDbPolyline
 90
        5
 70
   128
 43
0.0
 10
4633507.702624013
 20
5555431.172984624
 10
4633507.774153589
 20
5555433.671961115
 42
-0.4076445094570911
 10
4633510.202576956
 20
5555431.157645682
 42
-0.4205547770592924
 10
4633512.771864094
 20
5555433.641345112
 10
4633512.702529895
 20
5555431.142306743
  0
LWPOLYLINE
  5
A2
330
2
100
AcDbEntity
  8
d_ogrodzenia_brama_5m
 48
0.1
100
AcDbPolyline
 90
        5
 70
   128
 43
0.0
 10
4633243.750617841
 20
5553817.879537533
 10
4633244.157763519
 20
5553820.346161213
 42
-0.4076445094570911
 10
4633246.225770202
 20
5553817.527940055
 42
-0.4205547770592924
 10
4633249.105901152
 20
5553819.643322988
 10
4633248.700922558
 20
5553817.176342579
  0
LWPOLYLINE
  5
A3
330
2
100
AcDbEntity
  8
d_ogrodzenia_brama_5m
 48
0.1
100
AcDbPolyline
 90
        5
 70
   128
 43
0.0
 10
4632865.273038405
 20
5552073.592569128
 10
4632866.3604813
 20
5552075.843672841
 42
-0.4076445094570911
 10
4632867.548017128
 20
5552072.556001811
 42
-0.4205547770592924
 10
4632870.908460736
 20
5552073.771492664
 10
4632869.82299585
 20
5552071.519434499
  0
LWPOLYLINE
  5
A4
330
2
100
AcDbEntity
  8
d_ogrodzenia_brama_5m
 48
0.1
100
AcDbPolyline
 90
        5
 70
   128
 43
0.0
 10
4632500.19016335
 20
5550058.671612795
 10
4632497.781616601
 20
5550059.341614693
 42
-0.4076445094570911
 10
4632500.805856099
 20
5550061.094611439
 42
-0.4205547770592924
 10
4632499.012414427
 20
5550064.185495817
 10
4632501.421548846
 20
5550063.517610083
  0
LWPOLYLINE
  5
A5
330
2
100
AcDbEntity
  8
d_ogrodzenia_brama_5m
 48
0.1
100
AcDbPolyline
 90
        5
 70
   128
 43
0.0
 10
4632358.776181728
 20
5549320.57332965
 10
4632358.346075953
 20
5549318.110605749
 42
-0.4076445094570911
 10
4632356.304412062
 20
5549320.947969085
 42
-0.4205547770592924
 10
4632353.404700285
 20
5549318.859507716
 10
4632353.832642398
 20
5549321.322608516
  0
LWPOLYLINE
  5
A6
330
2
100
AcDbEntity
  8
d_ogrodzenia_furtki
 48
0.5
100
AcDbPolyline
 90
        4
 70
   128
 43
0.0
 10
4633269.7552779
 20
5554503.42651294
 10
4633270.349067206
 20
5554502.621892367
 10
4633269.544446627
 20
5554502.028103061
 42
-0.4142135623730951
 10
4633269.7552779
 20
5554503.42651294
 42
-0.9999999999999998
  0
LWPOLYLINE
  5
A7
330
2
100
AcDbEntity
  8
d_ogrodzenia_furtki
 48
0.5
100
AcDbPolyline
 90
        4
 70
   128
 43
0.0
 10
4633265.006644464
 20
5554478.300471362
 10
4633264.5297171
 20
5554479.179414076
 10
4633263.650774383
 20
5554478.702486704
 42
0.4142135623730951
 10
4633265.006644464
 20
5554478.300471362
 42
0.9999999999999998
  0
LWPOLYLINE
  5
A8
330
2
100
AcDbEntity
  8
d_ogrodzenia_furtki
 48
0.5
100
AcDbPolyline
 90
        4
 70
   128
 43
0.0
 10
4633327.39385569
 20
5554461.402101671
 10
4633326.453919435
 20
5554461.743451702
 10
4633326.112569407
 20
5554460.803515442
 42
0.4142135623730951
 10
4633327.39385569
 20
5554461.402101671
 42
0.9999999999999998
  0
LWPOLYLINE
  5
A9
330
2
100
AcDbEntity
  8
d_ogrodzenia_furtki
 48
0.5
100
AcDbPolyline
 90
        4
 70
   128
 43
0.0
 10
4633181.850174369
 20
5553848.855953043
 10
4633181.965401394
 20
5553849.849292228
 10
4633180.972062202
 20
5553849.964519249
 42
0.4142135623730951
 10
4633181.850174369
 20
5553848.855953043
 42
0.9999999999999998
  0
LWPOLYLINE
  5
AA
330
2
100
AcDbEntity
  8
d_ogrodzenia_furtki
 48
0.5
100
AcDbPolyline
 90
        4
 70
   128
 43
0.0
 10
4633233.720179739
 20
5553841.514162696
 10
4633232.728452027
 20
5553841.642522153
 10
4633232.600092575
 20
5553840.650794434
 42
0.4142135623730951
 10
4633233.720179739
 20
5553841.514162696
 42
0.9999999999999998
  0
LWPOLYLINE
  5
AB
330
2
100
AcDbEntity
  8
d_ogrodzenia_furtki
 48
0.5
100
AcDbPolyline
 90
        4
 70
   128
 43
0.0
 10
4632937.816278094
 20
5552934.540595238
 10
4632938.75862753
 20
5552934.205964776
 10
4632938.423997064
 20
5552933.263615337
 42
-0.4142135623730951
 10
4632937.816278094
 20
5552934.540595238
 42
-0.9999999999999998
  0
LWPOLYLINE
  5
AC
330
2
100
AcDbEntity
  8
d_ogrodzenia_furtki
 48
0.5
100
AcDbPolyline
 90
        4
 70
   128
 43
0.0
 10
4632944.696089253
 20
5552951.152871253
 10
4632945.630569433
 20
5552950.796856085
 10
4632945.274554259
 20
5552949.862375903
 42
-0.4142135623730951
 10
4632944.696089253
 20
5552951.152871253
 42
-0.9999999999999998
  0
LWPOLYLINE
  5
AD
330
2
100
AcDbEntity
  8
d_ogrodzenia_furtki
 48
0.5
100
AcDbPolyline
 90
        4
 70
   128
 43
0.0
 10
4632986.76497207
 20
5552906.374269713
 10
4632985.885704808
 20
5552906.850598474
 10
4632985.409376048
 20
5552905.971331207
 42
0.4142135623730951
 10
4632986.76497207
 20
5552906.374269713
 42
0.9999999999999998
  0
LWPOLYLINE
  5
AE
330
2
100
AcDbEntity
  8
d_ogrodzenia_furtki
 48
0.5
100
AcDbPolyline
 90
        4
 70
   128
 43
0.0
 10
4632623.950564492
 20
5550854.182613145
 10
4632624.907031253
 20
5550853.890771845
 10
4632624.615189947
 20
5550852.934305082
 42
-0.4142135623730951
 10
4632623.950564492
 20
5550854.182613145
 42
-0.9999999999999998
  0
LWPOLYLINE
  5
AF
330
2
100
AcDbEntity
  8
d_ogrodzenia_furtki
 48
0.5
100
AcDbPolyline
 90
        4
 70
   128
 43
0.0
 10
4632626.68576231
 20
5550865.894679742
 10
4632627.661190517
 20
5550865.674362196
 10
4632627.440872968
 20
5550864.698933987
 42
-0.4142135623730951
 10
4632626.68576231
 20
5550865.894679742
 42
-0.9999999999999998
  0
LWPOLYLINE
  5
B0
330
2
100
AcDbEntity
  8
d_ogrodzenia_furtki
 48
0.5
100
AcDbPolyline
 90
        4
 70
   128
 43
0.0
 10
4632672.480487353
 20
5550834.464787485
 10
4632671.488345502
 20
5550834.589905647
 10
4632671.363227344
 20
5550833.597763792
 42
0.4142135623730951
 10
4632672.480487353
 20
5550834.464787485
 42
0.9999999999999998
  0
LWPOLYLINE
  5
B1
330
2
100
AcDbEntity
  8
d_ogrodzenia_furtki
 48
0.5
100
AcDbPolyline
 90
        4
 70
   128
 43
0.0
 10
4632674.85502344
 20
5550843.436026319
 10
4632673.89710649
 20
5550843.723071823
 10
4632673.610060987
 20
5550842.765154869
 42
0.4142135623730951
 10
4632674.85502344
 20
5550843.436026319
 42
0.9999999999999998
  0
LWPOLYLINE
  5
B2
330
2
100
AcDbEntity
  8
d_ogrodzenia_plotki
 48
0.07
100
AcDbPolyline
 90
      107
 70
   128
 43
0.0
 10
4633258.056899109
 20
5553819.586636937
 10
4633256.243877459
 20
5553819.959999124
 10
4633254.931112746
 20
5553815.55439748
 10
4633249.05228424
 20
5553817.305730554
 10
4633242.938887613
 20
5553818.223557851
 10
4633242.181717392
 20
5553816.482950845
 10
4633242.155186225
 20
5553816.455274023
 10
4633241.962218512
 20
5553816.208683648
 10
4633241.849708041
 20
5553816.030710467
 10
4633241.698294285
 20
5553815.719412082
 10
4633241.56635119
 20
5553815.348377279
 10
4633241.522870452
 20
5553815.204455613
 10
4633241.497393517
 20
5553815.102612186
 10
4633241.46432521
 20
5553814.929177421
 10
4633240.127921371
 20
5553804.839400101
 10
4633239.602663119
 20
5553800.873875301
 10
4633238.992883494
 20
5553796.146876366
 10
4633238.988986421
 20
5553796.112807011
 10
4633238.928102173
 20
5553795.579869285
 10
4633238.889476977
 20
5553795.13027204
 10
4633238.887721378
 20
5553795.106619698
 10
4633238.798327495
 20
5553794.068674562
 10
4633238.724821921
 20
5553793.26894156
 10
4633238.722629954
 20
5553793.253432195
 10
4633237.941452955
 20
5553787.290890296
 10
4633237.052009582
 20
5553780.536883825
 10
4633237.043104337
 20
5553780.433797507
 10
4633237.042407903
 20
5553780.416987658
 10
4633237.043650974
 20
5553780.297301559
 10
4633237.076029738
 20
5553779.777233781
 10
4633237.109994055
 20
5553779.56225117
 10
4633237.118024776
 20
5553779.530957704
 10
4633237.195078683
 20
5553779.319246506
 10
4633237.421944587
 20
5553778.845863083
 10
4633237.537285274
 20
5553778.655078559
 10
4633237.556462671
 20
5553778.629354952
 10
4633237.703485274
 20
5553778.466970972
 10
4633238.091099484
 20
5553778.113157274
 10
4633238.275191699
 20
5553777.976009718
 10
4633238.303493006
 20
5553777.959016651
 10
4633238.497034969
 20
5553777.866082771
 10
4633238.781370057
 20
5553777.760812214
 10
4633238.877352347
 20
5553777.725999611
 10
4633238.98665153
 20
5553777.686356998
 10
4633239.110274018
 20
5553777.649165915
 10
4633239.128426736
 20
5553777.644790547
 10
4633239.240053359
 20
5553777.623612388
 10
4633239.287974912
 20
5553777.616933959
 10
4633239.302661818
 20
5553777.614982753
 10
4633239.304127392
 20
5553777.61479756
 10
4633239.308176408
 20
5553777.614293178
 10
4633247.772025433
 20
5553776.575077542
 10
4633247.973451354
 20
5553776.550345911
 10
4633250.884348514
 20
5553776.191088336
 10
4633251.064278702
 20
5553776.168421121
 10
4633251.064971052
 20
5553776.168336193
 10
4633253.895297023
 20
5553775.811780046
 10
4633254.502705352
 20
5553775.737731658
 10
4633255.861860095
 20
5553775.572031198
 10
4633255.980457134
 20
5553775.563272084
 10
4633256.013732008
 20
5553775.562402377
 10
4633256.120321725
 20
5553775.5641638
 10
4633256.572105915
 20
5553775.590931005
 10
4633256.805615806
 20
5553775.627087855
 10
4633256.870962211
 20
5553775.643638675
 10
4633257.075865709
 20
5553775.714905862
 10
4633257.492893336
 20
5553775.901829356
 10
4633257.703518508
 20
5553776.021840205
 10
4633257.759960201
 20
5553776.061661701
 10
4633257.924717801
 20
5553776.200476691
 10
4633258.24748954
 20
5553776.523549465
 10
4633258.404431826
 20
5553776.714931912
 10
4633258.443959206
 20
5553776.774126011
 10
4633258.548294154
 20
5553776.963724052
 10
4633258.731585559
 20
5553777.377067465
 10
4633258.779295209
 20
5553777.502038233
 10
4633258.790596053
 20
5553777.537076232
 10
4633258.817804938
 20
5553777.634576273
 10
4633259.9907069
 20
5553782.592830653
 10
4633260.935381366
 20
5553786.586249989
 10
4633261.688609548
 20
5553789.791869152
 10
4633261.689217788
 20
5553789.794494926
 10
4633261.691750654
 20
5553789.80559282
 10
4633261.709209937
 20
5553789.879899786
 10
4633261.779855389
 20
5553790.161694291
 10
4633261.853942291
 20
5553790.457719835
 10
4633261.853971605
 20
5553790.457836962
 10
4633266.022494415
 20
5553807.114119425
 10
4633266.350248493
 20
5553808.422982903
 10
4633266.406066734
 20
5553808.813436784
 10
4633266.417849013
 20
5553809.117862143
 10
4633266.401914478
 20
5553809.449677118
 10
4633266.3441662
 20
5553809.875929122
 10
4633266.254205056
 20
5553810.251612552
 10
4633266.151929602
 20
5553810.545012098
 10
4633265.919342735
 20
5553811.005683544
 10
4633265.776119895
 20
5553811.187494525
 10
4633265.575515681
 20
5553811.414548318
 10
4633265.300948812
 20
5553811.670114182
 10
4633264.959287834
 20
5553811.930914196
 10
4633264.661469326
 20
5553812.11779968
 10
4633264.388641192
 20
5553812.255988104
 10
4633264.024545417
 20
5553812.395980724
 10
4633261.66390402
 20
5553813.037391631
 10
4633258.599312386
 20
5553819.383268699
 42
0.2381597927093185
 10
4633258.464049587
 20
5553819.502484786
 10
4633258.463442721
 20
5553819.50264286
  0
LWPOLYLINE
  5
B3
330
2
100
AcDbEntity
  8
d_ogrodzenia_plotki
 48
0.07
100
AcDbPolyline
 90
       93
 70
   129
 43
0.0
 10
4632651.591794266
 20
5551102.499421074
 10
4632644.427063674
 20
5551104.688124159
 10
4632643.235166248
 20
5551106.441877784
 10
4632641.928820758
 20
5551114.276218571
 10
4632640.837498851
 20
5551114.829057919
 10
4632640.550302345
 20
5551114.993153187
 10
4632640.531839574
 20
5551115.004986189
 10
4632640.17620008
 20
5551115.272630702
 10
4632639.734118503
 20
5551115.674427421
 10
4632639.43644788
 20
5551116.001417319
 10
4632639.254214579
 20
5551116.221393838
 10
4632638.1674623
 20
5551117.665559137
 10
4632638.050712611
 20
5551117.869915907
 10
4632637.208835435
 20
5551119.123187985
 10
4632637.097185874
 20
5551119.16694469
 10
4632635.939366421
 20
5551121.625833251
 10
4632635.670469425
 20
5551122.196896162
 10
4632632.999292494
 20
5551125.968807485
 10
4632632.755005671
 20
5551126.115008055
 10
4632631.762849722
 20
5551127.499610483
 10
4632631.802693087
 20
5551127.603219494
 10
4632631.751266104
 20
5551127.710426198
 10
4632629.01010726
 20
5551130.872613027
 10
4632628.557202538
 20
5551131.504663844
 10
4632628.300854856
 20
5551132.500846221
 10
4632628.151004316
 20
5551132.591055189
 10
4632627.918454872
 20
5551132.917287933
 10
4632627.797599893
 20
5551133.129874183
 10
4632627.579862028
 20
5551133.624632195
 10
4632627.478437783
 20
5551134.101381871
 10
4632627.47591782
 20
5551134.643056218
 10
4632627.499985119
 20
5551134.887714932
 10
4632628.533182301
 20
5551139.964768124
 10
4632629.542674243
 20
5551144.798725101
 10
4632630.858741772
 20
5551151.736206123
 10
4632630.997864521
 20
5551152.401645532
 10
4632632.754509203
 20
5551160.368759207
 10
4632632.833367574
 20
5551160.611313315
 10
4632633.040964379
 20
5551161.086787677
 10
4632633.329295093
 20
5551161.5028077
 10
4632633.708615752
 20
5551161.870871975
 10
4632634.134189693
 20
5551162.147087856
 10
4632634.278374944
 20
5551162.204857501
 10
4632634.443923978
 20
5551162.113237625
 10
4632634.571420227
 20
5551162.241007308
 10
4632635.03716232
 20
5551162.606532694
 10
4632635.201521083
 20
5551162.708425574
 10
4632635.666744969
 20
5551162.669622171
 10
4632635.96362595
 20
5551162.625196192
 10
4632644.149288368
 20
5551160.846571195
 10
4632645.236225973
 20
5551160.774902812
 10
4632647.425049723
 20
5551159.56317176
 10
4632647.638166799
 20
5551159.812995492
 10
4632651.191397807
 20
5551159.040157536
 10
4632652.836402725
 20
5551158.655688517
 10
4632662.758979868
 20
5551156.297306883
 10
4632664.000009914
 20
5551156.038151463
 10
4632666.222289836
 20
5551155.574088656
 10
4632668.433465403
 20
5551155.081895928
 10
4632668.712136564
 20
5551154.990671396
 10
4632669.18039524
 20
5551154.785089238
 10
4632669.662035726
 20
5551154.449260203
 10
4632670.023681161
 20
5551154.073850731
 10
4632670.343147212
 20
5551153.576286445
 10
4632670.534102301
 20
5551153.090911456
 10
4632670.639566256
 20
5551152.505135595
 10
4632670.630070417
 20
5551151.993459757
 10
4632670.594989031
 20
5551151.695291586
 10
4632670.209894935
 20
5551149.937580779
 10
4632667.737420053
 20
5551138.876608397
 10
4632667.51655991
 20
5551137.759710933
 10
4632666.347943837
 20
5551130.407318892
 10
4632666.264501443
 20
5551130.065385808
 10
4632666.127041559
 20
5551129.652039242
 10
4632665.985144251
 20
5551129.319839118
 10
4632665.883311448
 20
5551129.127207851
 10
4632665.312119932
 20
5551128.148636077
 10
4632665.188986353
 20
5551127.377851495
 10
4632665.345253747
 20
5551126.362904625
 10
4632665.934255077
 20
5551122.551599641
 10
4632664.25232478
 20
5551113.126687674
 10
4632664.145722501
 20
5551112.544139182
 10
4632663.937342867
 20
5551111.786174963
 10
4632663.786825684
 20
5551111.658403296
 10
4632663.608858484
 20
5551111.509596343
 10
4632663.298909488
 20
5551111.292043841
 10
4632662.992968789
 20
5551111.085056962
 10
4632661.6279347
 20
5551110.775947329
 10
4632661.086535473
 20
5551110.699978312
 10
4632660.996997834
 20
5551110.684319488
 10
4632660.13168158
 20
5551110.616887499
 10
4632656.607217644
 20
5551106.665111267
 10
4632652.218292053
 20
5551105.340538189
  0
LWPOLYLINE
  5
B4
330
2
100
AcDbEntity
  8
d_ogrodzenia_plotki
 48
0.07
100
AcDbPolyline
 90
       38
 70
   129
 43
0.0
 10
4632743.531983779
 20
5551034.136714063
 10
4632738.040933075
 20
5551034.992442874
 10
4632739.464339874
 20
5551039.184189614
 10
4632739.512149099
 20
5551044.342286501
 10
4632738.966383169
 20
5551046.206752437
 10
4632734.02618587
 20
5551044.943212838
 10
4632731.610031487
 20
5551047.726720768
 10
4632731.034105136
 20
5551049.941078702
 10
4632731.213054402
 20
5551050.966248907
 10
4632731.199557628
 20
5551050.969727897
 10
4632731.302312945
 20
5551051.446515998
 10
4632733.105981174
 20
5551060.006801237
 10
4632736.560207125
 20
5551076.338568731
 10
4632737.00788786
 20
5551078.508375511
 10
4632737.14974249
 20
5551078.915279158
 10
4632737.814675884
 20
5551079.890725161
 10
4632738.709983606
 20
5551080.660722846
 10
4632739.774176418
 20
5551081.171986389
 10
4632740.932616995
 20
5551081.389905002
 10
4632741.345428645
 20
5551081.359550022
 10
4632742.091564926
 20
5551081.206674829
 10
4632744.174870973
 20
5551080.842785563
 10
4632751.514224372
 20
5551079.652500757
 10
4632751.846707523
 20
5551079.56336153
 10
4632752.288217196
 20
5551079.354602413
 10
4632753.082471636
 20
5551078.670756655
 10
4632753.597280037
 20
5551077.748523479
 10
4632753.763121189
 20
5551076.705667825
 10
4632753.633041691
 20
5551076.037414031
 10
4632753.656963886
 20
5551076.031055824
 10
4632753.046170704
 20
5551073.099699514
 10
4632751.157306416
 20
5551064.168335501
 10
4632747.832844042
 20
5551048.414171378
 10
4632747.67854032
 20
5551047.627127407
 10
4632747.649937165
 20
5551047.632391508
 10
4632747.399675159
 20
5551046.897994484
 10
4632746.776584419
 20
5551046.106771971
 10
4632746.026326771
 20
5551045.63160861
  0
LWPOLYLINE
  5
B5
330
2
100
AcDbEntity
  8
d_ogrodzenia_plotki
 48
0.07
100
AcDbPolyline
 90
       47
 70
   129
 43
0.0
 10
4632347.458001714
 20
5549829.694688248
 10
4632349.267333999
 20
5549829.532454902
 10
4632350.447081885
 20
5549836.132927265
 10
4632353.665236074
 20
5549842.284697842
 10
4632358.832725429
 20
5549838.270498298
 10
4632361.682010479
 20
5549841.005122762
 10
4632362.321131155
 20
5549841.036299644
 10
4632363.03164396
 20
5549841.229801881
 10
4632363.682002348
 20
5549841.5713201
 10
4632364.244326662
 20
5549842.046240232
 10
4632364.690159746
 20
5549842.630231221
 10
4632365.000450752
 20
5549843.297251349
 10
4632365.080591312
 20
5549843.65634107
 10
4632365.08935435
 20
5549843.654700173
 10
4632367.072775178
 20
5549851.796396509
 10
4632367.91030981
 20
5549855.131775359
 10
4632369.012521333
 20
5549855.962101362
 10
4632369.307040304
 20
5549857.168708848
 10
4632368.615355112
 20
5549857.939531715
 10
4632369.274049968
 20
5549860.562703115
 10
4632369.407031838
 20
5549861.099954794
 10
4632369.472756935
 20
5549861.656218848
 10
4632369.265132354
 20
5549862.944088893
 10
4632368.678194289
 20
5549864.112579462
 10
4632367.766245533
 20
5549865.049270636
 10
4632366.616988632
 20
5549865.665690458
 10
4632365.824392419
 20
5549865.840332611
 10
4632365.827823187
 20
5549865.86019066
 10
4632360.586927566
 20
5549866.928195756
 10
4632358.441738634
 20
5549867.539878165
 10
4632355.70085543
 20
5549868.191874752
 10
4632355.46848678
 20
5549868.248727469
 10
4632354.981052738
 20
5549868.311816267
 10
4632354.152739339
 20
5549868.247296814
 10
4632353.352842418
 20
5549868.027157848
 10
4632352.610431279
 20
5549867.659546175
 10
4632351.950857146
 20
5549867.156832469
 10
4632351.399671553
 20
5549866.538344741
 10
4632350.975961656
 20
5549865.825744212
 10
4632350.695517208
 20
5549865.046181876
 10
4632350.621136559
 20
5549864.569965173
 10
4632350.613495547
 20
5549864.571148559
 10
4632348.344550417
 20
5549851.095991438
 10
4632347.825615808
 20
5549848.361531737
 10
4632347.82734661
 20
5549848.360947735
 10
4632347.630554805
 20
5549847.811733341
 10
4632343.715582202
 20
5549835.071115754
  0
LWPOLYLINE
  5
B6
330
2
100
AcDbEntity
  8
d_ogrodzenia_plotki
 48
0.07
100
AcDbPolyline
 90
      110
 70
   129
 43
0.0
 10
4632346.058233032
 20
5549816.740524505
 10
4632346.563838122
 20
5549808.30059503
 10
4632352.742817148
 20
5549807.131897363
 10
4632352.10848752
 20
5549805.811251821
 10
4632352.229862177
 20
5549805.684343832
 10
4632352.606042243
 20
5549805.248712366
 10
4632352.688654346
 20
5549805.145356287
 10
4632352.759590838
 20
5549805.049347107
 10
4632352.856278454
 20
5549804.903712174
 10
4632353.150899087
 20
5549804.407550159
 10
4632353.214287593
 20
5549804.290820461
 10
4632353.266634719
 20
5549804.184929055
 10
4632353.334735155
 20
5549804.028104242
 10
4632353.36559692
 20
5549803.946171466
 10
4632353.539334224
 20
5549803.491096816
 10
4632353.582163915
 20
5549803.364394764
 10
4632353.615253196
 20
5549803.252388159
 10
4632353.654812823
 20
5549803.089879413
 10
4632353.764328276
 20
5549802.521416962
 10
4632353.791374329
 20
5549802.313458407
 10
4632353.803175949
 20
5549802.141030872
 10
4632353.803247277
 20
5549801.907358921
 10
4632353.726557411
 20
5549800.776761722
 10
4632353.672059237
 20
5549800.500776086
 10
4632353.68086175
 20
5549800.447940407
 10
4632350.21275525
 20
5549786.14995111
 10
4632352.260963387
 20
5549785.337491722
 10
4632351.635924359
 20
5549782.966130459
 10
4632349.45412175
 20
5549783.209376924
 10
4632349.292363545
 20
5549782.92523553
 10
4632349.225199767
 20
5549782.817518339
 10
4632349.170580242
 20
5549782.737257783
 10
4632349.061826211
 20
5549782.595351672
 10
4632348.70706271
 20
5549782.182832927
 10
4632348.639436395
 20
5549782.106452662
 10
4632348.552510973
 20
5549782.015891016
 10
4632348.483777882
 20
5549781.949819941
 10
4632348.34838814
 20
5549781.833812992
 10
4632347.836633835
 20
5549781.443767455
 10
4632347.734623215
 20
5549781.372314328
 10
4632347.656150917
 20
5549781.321926728
 10
4632347.503771943
 20
5549781.235845065
 10
4632346.926666534
 20
5549780.95161132
 10
4632346.812910657
 20
5549780.901199362
 10
4632346.728187717
 20
5549780.867687799
 10
4632346.565918968
 20
5549780.813742905
 10
4632345.945045718
 20
5549780.645090724
 10
4632345.823576692
 20
5549780.617367954
 10
4632345.736053109
 20
5549780.601121543
 10
4632345.57046259
 20
5549780.579686317
 10
4632344.928912651
 20
5549780.532171417
 10
4632344.804273244
 20
5549780.528087681
 10
4632344.717230988
 20
5549780.528820836
 10
4632344.554218443
 20
5549780.539006156
 10
4632343.917366553
 20
5549780.613459051
 10
4632343.857228387
 20
5549780.6217219
 10
4632343.81062965
 20
5549780.629084587
 10
4632343.715542558
 20
5549780.647261052
 10
4632343.680860365
 20
5549780.655054867
 10
4632343.657187831
 20
5549780.660418869
 10
4632339.555018093
 20
5549781.62482388
 10
4632339.553084668
 20
5549781.625279764
 10
4632339.545216519
 20
5549781.627141851
 10
4632339.290920117
 20
5549781.68692635
 10
4632339.134914903
 20
5549781.719429047
 10
4632338.60402038
 20
5549781.853911208
 10
4632338.588566739
 20
5549781.857953479
 10
4632338.460231278
 20
5549781.890460557
 10
4632338.426815643
 20
5549781.899347127
 10
4632338.384515733
 20
5549781.911134594
 10
4632338.273597525
 20
5549781.946876816
 10
4632337.594105784
 20
5549782.196220077
 10
4632337.488235324
 20
5549782.239923949
 10
4632337.412346286
 20
5549782.274847342
 10
4632337.252921949
 20
5549782.360771879
 10
4632336.636373334
 20
5549782.7450677
 10
4632336.53482338
 20
5549782.81463413
 10
4632336.470445255
 20
5549782.862954227
 10
4632336.342831268
 20
5549782.97102746
 10
4632336.121405004
 20
5549783.182113276
 10
4632335.817199032
 20
5549783.472113049
 10
4632335.724580626
 20
5549783.569195657
 10
4632335.673062018
 20
5549783.628598695
 10
4632335.579315138
 20
5549783.749293944
 10
4632335.166552597
 20
5549784.344500814
 10
4632335.089008575
 20
5549784.46979928
 10
4632335.051309977
 20
5549784.538474417
 10
4632334.990437903
 20
5549784.663595528
 10
4632334.705425687
 20
5549785.331080584
 10
4632334.650488302
 20
5549785.483218069
 10
4632334.627760429
 20
5549785.55951747
 10
4632334.597016937
 20
5549785.682566918
 10
4632334.452949761
 20
5549786.392680133
 10
4632334.428589508
 20
5549786.567444235
 10
4632334.422273276
 20
5549786.64948579
 10
4632334.418058871
 20
5549786.766027846
 10
4632334.421355637
 20
5549787.491956319
 10
4632334.434734418
 20
5549787.682048332
 10
4632334.446271254
 20
5549787.766366543
 10
4632334.458928207
 20
5549787.843402318
 10
4632334.557349708
 20
5549788.355969651
 10
4632334.557151128
 20
5549788.357013833
 10
4632335.835139553
 20
5549794.988226367
 10
4632337.599804317
 20
5549804.018533185
 10
4632337.64893618
 20
5549804.206539
 10
4632337.689694785
 20
5549804.334621679
 10
4632337.737594451
 20
5549804.467346157
 10
4632338.155533578
 20
5549805.499890618
 10
4632340.400477109
 20
5549814.31012596
 10
4632344.053869294
 20
5549817.038148006
  0
LWPOLYLINE
  5
B7
330
2
100
AcDbEntity
  8
d_ogrodzenia_plotki
 48
0.07
100
AcDbPolyline
 90
       38
 70
   129
 43
0.0
 10
4632454.201590634
 20
5549832.3487085
 10
4632452.792620348
 20
5549826.260263638
 10
4632451.578846978
 20
5549823.025399679
 10
4632453.721838831
 20
5549822.507638542
 10
4632458.186898217
 20
5549827.114166295
 10
4632459.029028329
 20
5549834.837991351
 10
4632459.294318859
 20
5549835.467868758
 10
4632459.322355911
 20
5549835.572534557
 10
4632460.194502434
 20
5549839.409655341
 10
4632463.493332953
 20
5549853.798548825
 10
4632465.10916506
 20
5549860.842862883
 10
4632465.078983296
 20
5549860.849889221
 10
4632465.140702404
 20
5549861.609988284
 10
4632464.878524972
 20
5549862.568986732
 10
4632464.305242514
 20
5549863.379839299
 10
4632463.497726654
 20
5549863.941840778
 10
4632463.239185979
 20
5549864.035974549
 10
4632461.826643182
 20
5549864.416840035
 10
4632457.711527917
 20
5549865.498386546
 10
4632455.922194946
 20
5549865.974701401
 10
4632455.917720163
 20
5549865.958384275
 10
4632455.544416756
 20
5549866.023752342
 10
4632454.960238663
 20
5549866.016876089
 10
4632454.387734279
 20
5549865.902352905
 10
4632453.845756701
 20
5549865.683656745
 10
4632453.354558807
 20
5549865.369005588
 10
4632452.929507232
 20
5549864.968462522
 10
4632452.586020132
 20
5549864.496813098
 10
4632452.336582038
 20
5549863.973061719
 10
4632452.286017756
 20
5549863.806726945
 10
4632450.604029814
 20
5549856.875317158
 10
4632446.255274676
 20
5549838.612283779
 10
4632446.280004338
 20
5549838.604826929
 10
4632446.165207626
 20
5549837.907491884
 10
4632446.374875928
 20
5549836.935377675
 10
4632446.895350576
 20
5549836.156765304
 10
4632448.182814861
 20
5549833.044084249
 10
4632453.463329028
 20
5549834.416554626
  0
LWPOLYLINE
  5
B8
330
2
100
AcDbEntity
  8
d_ogrodzenia_plotki
 48
0.07
100
AcDbPolyline
 90
       43
 70
   129
 43
0.0
 10
4632447.691083611
 20
5549814.752079043
 10
4632448.93894636
 20
5549806.961086792
 10
4632444.382166924
 20
5549805.502373979
 10
4632439.664735595
 20
5549805.944122308
 10
4632438.776883064
 20
5549805.629314792
 10
4632438.067062658
 20
5549805.022149636
 10
4632437.628574039
 20
5549804.215077263
 10
4632437.601777944
 20
5549804.12351121
 10
4632432.91355518
 20
5549786.036254613
 10
4632432.471445894
 20
5549784.32959693
 10
4632432.345139337
 20
5549783.851298001
 10
4632432.33091541
 20
5549783.792418723
 10
4632430.759383369
 20
5549776.62661249
 10
4632427.008679429
 20
5549759.543616799
 10
4632426.484367535
 20
5549757.073372364
 10
4632422.447990986
 20
5549737.640244265
 10
4632422.472030185
 20
5549736.768482469
 10
4632422.888248757
 20
5549735.991543382
 10
4632423.25134251
 20
5549735.660455009
 10
4632424.00795675
 20
5549735.352925315
 10
4632429.176247195
 20
5549734.474265199
 10
4632429.904895495
 20
5549734.49178305
 10
4632430.591213063
 20
5549734.789058101
 10
4632431.115760052
 20
5549735.321899224
 10
4632431.394672415
 20
5549735.994480723
 10
4632434.08598618
 20
5549749.211873084
 10
4632434.660390795
 20
5549752.137537468
 10
4632435.588619573
 20
5549757.497910328
 10
4632439.384449325
 20
5549777.427616308
 10
4632440.511964305
 20
5549777.167883738
 10
4632446.009086571
 20
5549775.930391133
 10
4632446.662744363
 20
5549775.923740903
 10
4632447.277580543
 20
5549776.192338708
 10
4632447.694195899
 20
5549776.624143446
 10
4632447.91649221
 20
5549777.158863844
 10
4632448.626937941
 20
5549780.537889456
 10
4632450.187331948
 20
5549788.077310508
 10
4632451.957482348
 20
5549788.67046058
 10
4632454.687303719
 20
5549802.182571158
 10
4632454.964324772
 20
5549802.578964992
 10
4632455.154838931
 20
5549803.728037606
 10
4632454.888768017
 20
5549813.796032967
 10
4632450.025458128
 20
5549815.855816957
  0
LWPOLYLINE
  5
B9
330
2
100
AcDbEntity
  8
d_ogrodzenia_plotki
 48
0.07
100
AcDbPolyline
 90
      128
 70
   129
 43
0.0
 10
4632247.459492988
 20
5549359.204510522
 10
4632253.493261909
 20
5549358.211563798
 10
4632261.490660952
 20
5549358.894478195
 10
4632262.105846396
 20
5549360.807061637
 10
4632261.838765585
 20
5549364.816792333
 10
4632263.28702799
 20
5549369.540870229
 10
4632263.381968946
 20
5549369.649348153
 10
4632264.187055952
 20
5549370.768374074
 10
4632264.198570459
 20
5549370.78460423
 10
4632264.259846831
 20
5549370.872199062
 10
4632264.359719812
 20
5549371.036455395
 10
4632265.055474773
 20
5549372.365746282
 10
4632265.0688041
 20
5549372.391849256
 10
4632265.11143563
 20
5549372.477452033
 10
4632265.180260231
 20
5549372.639598199
 10
4632265.681594445
 20
5549374.05337494
 10
4632265.693570564
 20
5549374.088624572
 10
4632265.719926728
 20
5549374.169712907
 10
4632265.758548733
 20
5549374.314426038
 10
4632265.836645147
 20
5549374.68563608
 10
4632266.311610791
 20
5549377.888660448
 10
4632266.860683542
 20
5549380.563937742
 10
4632266.138353734
 20
5549381.401054559
 10
4632266.170016596
 20
5549382.365004531
 10
4632266.16861239
 20
5549382.422419864
 10
4632266.041632068
 20
5549383.412423576
 10
4632266.033313729
 20
5549383.457946711
 10
4632265.810115676
 20
5549384.253809985
 10
4632265.796611736
 20
5549384.294210552
 10
4632265.471006866
 20
5549385.053614046
 10
4632265.452495176
 20
5549385.090504928
 10
4632265.030220593
 20
5549385.800615818
 10
4632265.006716923
 20
5549385.83442885
 10
4632264.496735832
 20
5549386.481186481
 10
4632264.467871584
 20
5549386.512201684
 10
4632264.282039976
 20
5549386.693061685
 10
4632263.87692897
 20
5549387.087334631
 10
4632263.842022708
 20
5549387.115529681
 10
4632263.179543733
 20
5549387.608849762
 10
4632263.151678302
 20
5549387.625472919
 10
4632260.477602842
 20
5549389.73260912
 10
4632260.399271834
 20
5549389.736936819
 10
4632260.367776882
 20
5549389.738301466
 10
4632257.188274317
 20
5549389.838206151
 10
4632257.185711761
 20
5549389.838278123
 10
4632257.172950946
 20
5549389.838592349
 10
4632256.48006496
 20
5549389.860354189
 10
4632250.853745987
 20
5549390.048120318
 10
4632249.753206113
 20
5549390.104241372
 10
4632249.691839571
 20
5549390.105533416
 10
4632243.376411929
 20
5549390.426287119
 10
4632243.04114744
 20
5549390.414531736
 10
4632242.76742634
 20
5549390.381297166
 10
4632242.757458479
 20
5549390.380061122
 10
4632241.908196023
 20
5549390.272552813
 10
4632241.878154403
 20
5549390.268516352
 10
4632241.485368624
 20
5549390.17576186
 10
4632241.142658364
 20
5549390.058297993
 10
4632241.091407411
 20
5549390.039976949
 10
4632240.68663733
 20
5549389.88926375
 10
4632240.429070153
 20
5549389.773044858
 10
4632240.297187656
 20
5549389.702482987
 10
4632239.654600424
 20
5549389.366521976
 10
4632239.407705611
 20
5549389.215409893
 10
4632239.196790329
 20
5549389.065878618
 10
4632239.150075686
 20
5549389.031811395
 10
4632238.560469211
 20
5549388.589630059
 10
4632238.345066851
 20
5549388.405277122
 10
4632238.276905781
 20
5549388.338880517
 10
4632238.154585349
 20
5549388.218216462
 10
4632238.098982544
 20
5549388.161318089
 10
4632237.594066099
 20
5549387.625322822
 10
4632237.41895529
 20
5549387.41461812
 10
4632237.395265104
 20
5549387.382211356
 10
4632237.260511351
 20
5549387.188519743
 10
4632237.203630249
 20
5549387.102495524
 10
4632236.81291182
 20
5549386.480124867
 10
4632236.68915125
 20
5549386.254704382
 10
4632236.622926018
 20
5549386.115327875
 10
4632236.571249668
 20
5549386.003504261
 10
4632236.521240584
 20
5549385.886769694
 10
4632236.251676604
 20
5549385.205157041
 10
4632236.176610097
 20
5549384.982017206
 10
4632236.101817092
 20
5549384.714303013
 10
4632236.065843509
 20
5549384.566540705
 10
4632235.916086535
 20
5549383.84696518
 10
4632235.882777321
 20
5549383.638723393
 10
4632235.851606217
 20
5549383.361654865
 10
4632235.838657542
 20
5549383.183701494
 10
4632235.814296044
 20
5549382.451088598
 10
4632235.815639716
 20
5549382.267387733
 10
4632235.828931121
 20
5549381.989939328
 10
4632235.848082875
 20
5549381.785201603
 10
4632235.949494951
 20
5549381.058594457
 10
4632235.971610078
 20
5549380.928123947
 10
4632236.018816775
 20
5549380.691776706
 10
4632236.068306495
 20
5549380.491850735
 10
4632236.146755017
 20
5549380.227211833
 10
4632236.152047537
 20
5549380.209620494
 10
4632236.182029965
 20
5549380.111412085
 10
4632236.22189231
 20
5549379.992714364
 10
4632236.310813225
 20
5549379.750384056
 10
4632237.073127888
 20
5549377.742364677
 10
4632237.079946557
 20
5549377.724637635
 10
4632237.080171186
 20
5549377.724061311
 10
4632237.116086851
 20
5549377.631936928
 10
4632237.548148025
 20
5549376.494002792
 10
4632240.509898178
 20
5549367.522659217
 10
4632240.527135678
 20
5549367.464408895
 10
4632241.057230112
 20
5549365.858511006
 10
4632241.085783755
 20
5549365.772009003
 10
4632241.092783931
 20
5549365.751114683
 10
4632241.100489872
 20
5549365.728448666
 10
4632241.103448938
 20
5549365.719797318
 10
4632241.118685563
 20
5549365.675517174
 10
4632241.17593469
 20
5549365.525172633
 10
4632241.277931044
 20
5549365.281393148
 10
4632241.35632949
 20
5549365.112138839
 10
4632241.992951922
 20
5549363.862855051
 10
4632242.121967961
 20
5549363.638901204
 10
4632242.380685857
 20
5549363.238805174
 10
4632242.613172476
 20
5549362.93305978
 10
4632243.193448696
 20
5549362.279714933
 10
4632243.567668707
 20
5549361.889737242
 10
4632243.709612617
 20
5549361.753183567
 10
4632244.057629013
 20
5549361.444184905
 10
4632244.409422894
 20
5549361.184000717
 10
4632244.718213375
 20
5549360.995714187
  0
LWPOLYLINE
  5
BA
330
2
100
AcDbEntity
  8
d_ogrodzenia_plotki
 48
0.07
100
AcDbPolyline
 90
       43
 70
   129
 43
0.0
 10
4632353.630455312
 20
5549321.153536851
 10
4632358.856802597
 20
5549320.369514239
 10
4632360.808305338
 20
5549320.596051053
 10
4632362.364688053
 20
5549321.374874911
 10
4632363.429189962
 20
5549322.011044359
 10
4632364.071275201
 20
5549322.552808868
 10
4632364.610100335
 20
5549323.195891481
 10
4632365.197515239
 20
5549324.152243226
 10
4632369.464165796
 20
5549333.536649643
 10
4632372.186684042
 20
5549339.691767139
 10
4632372.730318823
 20
5549340.918752379
 10
4632374.833104775
 20
5549347.364687115
 10
4632374.960125245
 20
5549347.558979893
 10
4632375.710433174
 20
5549349.302307968
 10
4632376.149124468
 20
5549351.14937963
 10
4632376.261867118
 20
5549353.043208125
 10
4632376.045035424
 20
5549354.929134641
 10
4632375.506634994
 20
5549356.745992456
 10
4632374.661201938
 20
5549358.446997902
 10
4632373.53431854
 20
5549359.980205969
 10
4632373.059136348
 20
5549360.371757248
 10
4632372.628552609
 20
5549360.73031093
 10
4632371.501674191
 20
5549361.441678836
 10
4632370.255608441
 20
5549361.906458738
 10
4632365.960925567
 20
5549363.021804501
 10
4632364.775513454
 20
5549363.304903234
 10
4632363.671500526
 20
5549363.630767173
 10
4632363.551577948
 20
5549363.664910523
 10
4632361.954471631
 20
5549363.919229096
 10
4632360.329760835
 20
5549363.818684948
 10
4632358.766688275
 20
5549363.365848332
 10
4632357.344483637
 20
5549362.58392034
 10
4632356.126234488
 20
5549361.506773302
 10
4632355.17587359
 20
5549360.191173293
 10
4632354.596903891
 20
5549358.842857834
 10
4632350.721282529
 20
5549358.967740049
 10
4632350.290776177
 20
5549355.773376959
 10
4632354.001519865
 20
5549354.244828645
 10
4632353.570149068
 20
5549348.922208672
 10
4632353.264588282
 20
5549346.098541787
 10
4632352.47135389
 20
5549338.50411706
 10
4632345.630451957
 20
5549332.881959937
 10
4632350.108379705
 20
5549326.781568026
  0
LWPOLYLINE
  5
BB
330
2
100
AcDbEntity
  8
d_ogrodzenia_plotki
 48
0.07
100
AcDbPolyline
 90
       45
 70
   129
 43
0.0
 10
4632321.129963618
 20
5549098.417215609
 10
4632321.869333038
 20
5549102.860549918
 10
4632326.267085478
 20
5549101.306110949
 10
4632331.382272893
 20
5549103.286545009
 10
4632333.119830646
 20
5549103.014632321
 10
4632337.480099081
 20
5549100.597583528
 10
4632338.418694941
 20
5549100.361709893
 10
4632338.783267642
 20
5549100.304164008
 10
4632340.855173078
 20
5549099.637184863
 10
4632344.399012735
 20
5549098.49331335
 10
4632344.520841396
 20
5549098.448497862
 10
4632345.301336563
 20
5549097.903637075
 10
4632345.787144527
 20
5549097.064031819
 10
4632345.869888494
 20
5549096.097360141
 10
4632345.676348115
 20
5549095.569431475
 10
4632345.70252407
 20
5549095.557086785
 10
4632339.133249216
 20
5549077.012026689
 10
4632338.135861098
 20
5549074.184233535
 10
4632335.915090961
 20
5549068.042383009
 10
4632335.722224356
 20
5549067.656499274
 10
4632335.277538894
 20
5549067.093119012
 10
4632334.743342643
 20
5549066.618851685
 10
4632334.132972787
 20
5549066.24549281
 10
4632333.46763624
 20
5549065.986160119
 10
4632332.765106982
 20
5549065.847996137
 10
4632332.050001272
 20
5549065.836071498
 10
4632331.34333609
 20
5549065.950505595
 10
4632330.948588386
 20
5549066.088976942
 10
4632330.946078678
 20
5549066.082475239
 10
4632328.764086359
 20
5549066.853277204
 10
4632325.236006331
 20
5549068.072126695
 10
4632319.091427726
 20
5549070.228414083
 10
4632319.092043722
 20
5549070.230574836
 10
4632318.652249966
 20
5549070.36682282
 10
4632317.942417968
 20
5549070.74110543
 10
4632317.063740991
 20
5549071.511483337
 10
4632316.42507501
 20
5549072.489289556
 10
4632316.129624447
 20
5549073.280108638
 10
4632315.996093145
 20
5549074.111932022
 10
4632316.028947562
 20
5549074.955217047
 10
4632316.144286124
 20
5549075.433636358
 10
4632316.182074585
 20
5549075.756939901
 10
4632316.667761212
 20
5549079.638123926
 10
4632318.160415614
 20
5549091.650053187
 10
4632318.581105836
 20
5549095.218639547
  0
LWPOLYLINE
  5
BC
330
2
100
AcDbEntity
  8
d_ogrodzenia_plotki
 48
0.07
100
AcDbPolyline
 90
       39
 70
   129
 43
0.0
 10
4632220.209598066
 20
5548715.650750527
 10
4632224.471772949
 20
5548714.014697117
 10
4632225.54022919
 20
5548711.845554702
 10
4632224.352483237
 20
5548709.103830119
 10
4632225.208238913
 20
5548706.253847813
 10
4632229.824206753
 20
5548705.827225749
 10
4632230.517434892
 20
5548703.630593027
 10
4632230.643173555
 20
5548703.096297717
 10
4632230.646217061
 20
5548702.818577596
 10
4632230.650168739
 20
5548702.818499954
 10
4632230.703154648
 20
5548701.567088609
 10
4632230.947734659
 20
5548697.618933257
 10
4632231.702346778
 20
5548681.177525245
 10
4632231.828808397
 20
5548677.943565832
 10
4632232.26061875
 20
5548671.370135489
 10
4632232.340315499
 20
5548670.15691535
 42
-0.6064040844263758
 10
4632227.490810743
 20
5548667.209206321
 10
4632226.681825833
 20
5548667.698620238
 10
4632210.397161075
 20
5548677.550400516
 10
4632208.083407197
 20
5548678.999807289
 10
4632207.426948802
 20
5548679.39480809
 10
4632204.187488595
 20
5548681.371572371
 10
4632204.194616031
 20
5548681.384011795
 10
4632203.807532859
 20
5548681.64690424
 10
4632203.297320816
 20
5548682.167849712
 10
4632202.900806626
 20
5548682.779461564
 10
4632202.633772373
 20
5548683.45818352
 10
4632202.507444207
 20
5548684.175866003
 10
4632202.52658625
 20
5548684.905122819
 10
4632202.690573707
 20
5548685.616955125
 10
4632202.9027207
 20
5548686.084775051
 10
4632202.886602755
 20
5548686.093551711
 10
4632204.629533951
 20
5548689.172790393
 10
4632210.097676351
 20
5548698.691309916
 10
4632211.235828254
 20
5548700.708242997
 10
4632212.111126895
 20
5548702.23295781
 10
4632212.419666397
 20
5548703.10323374
 10
4632213.226252702
 20
5548704.379304386
 10
4632214.301305965
 20
5548705.364093684
  0
LWPOLYLINE
  5
BD
330
2
100
AcDbEntity
  8
d_ogrodzenia_plotki
 48
0.07
100
AcDbPolyline
 90
       49
 70
   129
 43
0.0
 10
4632290.048772597
 20
5547635.204669574
 10
4632296.143660117
 20
5547656.082410846
 10
4632299.779700625
 20
5547655.662265358
 10
4632297.046872485
 20
5547639.706285929
 10
4632302.734556997
 20
5547639.869060626
 10
4632304.750414685
 20
5547637.701595976
 10
4632305.786777966
 20
5547636.663538602
 10
4632306.59931732
 20
5547635.413457223
 10
4632307.050643777
 20
5547634.264940678
 10
4632307.297158237
 20
5547633.06834574
 10
4632307.337375634
 20
5547632.728303568
 10
4632307.555609003
 20
5547628.697223372
 10
4632307.758275844
 20
5547624.829760957
 10
4632308.348191949
 20
5547619.096270276
 10
4632310.177760053
 20
5547604.035417403
 10
4632310.963642198
 20
5547594.322777373
 10
4632312.908169259
 20
5547594.161442782
 10
4632313.26929952
 20
5547592.50421352
 10
4632311.191671425
 20
5547591.504586639
 10
4632311.248897959
 20
5547590.797329534
 10
4632311.223066055
 20
5547589.273230671
 10
4632310.898899707
 20
5547587.773631176
 10
4632310.287835752
 20
5547586.366640342
 10
4632309.414482164
 20
5547585.109585478
 10
4632308.588097449
 20
5547584.257066529
 10
4632307.645121578
 20
5547583.540993951
 10
4632306.602172272
 20
5547582.973516224
 10
4632305.48837391
 20
5547582.570036828
 10
4632304.254329394
 20
5547582.318324919
 10
4632299.583731538
 20
5547581.756871694
 10
4632298.262183661
 20
5547581.709466149
 10
4632296.944522992
 20
5547581.884576023
 10
4632295.672059338
 20
5547582.279451046
 10
4632294.487418471
 20
5547582.881412489
 10
4632293.418397891
 20
5547583.676727541
 10
4632292.500271744
 20
5547584.63974397
 10
4632291.756542275
 20
5547585.745629199
 10
4632291.211866234
 20
5547586.956067798
 10
4632290.90515157
 20
5547587.997709491
 10
4632290.743165815
 20
5547589.064131524
 10
4632290.607717237
 20
5547590.691584586
 10
4632289.797292078
 20
5547602.231333534
 10
4632288.629509985
 20
5547618.016695975
 10
4632288.248084994
 20
5547623.879949792
 10
4632288.15279187
 20
5547626.844393906
 10
4632288.209873943
 20
5547628.042244732
 10
4632288.335424691
 20
5547628.732469818
 10
4632289.504433184
 20
5547633.814496593
 10
4632289.509285013
 20
5547633.835544525
  0
LWPOLYLINE
  5
BE
330
2
100
AcDbEntity
  8
d_ogrodzenia_plotki
 48
0.07
100
AcDbPolyline
 90
       48
 70
   129
 43
0.0
 10
4632402.069878401
 20
5547643.872823944
 10
4632404.966839929
 20
5547645.303506986
 10
4632411.239319145
 20
5547640.226011786
 10
4632414.386860798
 20
5547631.640861955
 10
4632414.588674169
 20
5547630.389536646
 10
4632414.966822541
 20
5547624.498418752
 10
4632415.718181351
 20
5547612.807754289
 10
4632415.976226396
 20
5547609.745868029
 10
4632415.987054447
 20
5547609.583120483
 10
4632416.442772859
 20
5547600.250498556
 10
4632416.72941799
 20
5547591.661957065
 10
4632416.700896412
 20
5547590.961199296
 10
4632416.326568746
 20
5547587.71258808
 10
4632415.227636534
 20
5547579.366986281
 10
4632415.079456388
 20
5547578.624415783
 10
4632414.561067347
 20
5547577.278489616
 10
4632413.721309531
 20
5547576.097288965
 10
4632412.614564437
 20
5547575.162002248
 10
4632411.320760247
 20
5547574.536069703
 10
4632410.446075684
 20
5547574.243159214
 10
4632409.54032669
 20
5547574.090228065
 10
4632407.473366749
 20
5547573.905012202
 10
4632406.646800036
 20
5547573.887702457
 10
4632405.809559427
 20
5547573.985611726
 10
4632404.898597839
 20
5547574.311382874
 10
4632404.058882731
 20
5547574.773117609
 10
4632403.302303408
 20
5547575.362933421
 10
4632402.648938395
 20
5547576.065794824
 10
4632402.116538962
 20
5547576.862142448
 10
4632401.716284414
 20
5547577.735322518
 10
4632401.460095177
 20
5547578.658345063
 10
4632401.353363491
 20
5547579.603724357
 10
4632401.132888531
 20
5547586.194366845
 10
4632400.406156324
 20
5547598.130472676
 10
4632396.757120966
 20
5547598.767333129
 10
4632396.572893703
 20
5547601.936986181
 10
4632400.128962979
 20
5547602.487339654
 10
4632399.946607653
 20
5547605.348947817
 10
4632399.288431472
 20
5547611.146912692
 10
4632399.287714285
 20
5547611.15327001
 10
4632399.217338954
 20
5547611.781106639
 10
4632397.93139593
 20
5547622.804692996
 10
4632397.221499592
 20
5547629.064645564
 10
4632397.193557503
 20
5547630.246148997
 10
4632397.377786618
 20
5547631.42291744
 10
4632397.766042717
 20
5547632.538735833
 10
4632398.384014692
 20
5547633.917477794
 10
4632401.301331472
 20
5547637.540716281
  0
LWPOLYLINE
  5
BF
330
2
100
AcDbEntity
  8
d_ogrodzenia_brama_4m
 48
0.1
100
AcDbPolyline
 90
        5
 70
   128
 43
0.0
 10
4632746.62252838
 20
5551966.711766409
 10
4632746.695946635
 20
5551964.713114428
 42
0.4076445094570911
 10
4632748.622325685
 20
5551966.740239959
 42
0.4205547770592924
 10
4632750.693785393
 20
5551964.769997789
 10
4632750.622122988
 20
5551966.768713502
  0
LWPOLYLINE
  5
C0
330
2
100
AcDbEntity
  8
d_ogrodzenia_plotki
 48
0.07
100
AcDbPolyline
 90
       33
 70
   129
 43
0.0
 10
4632310.496206296
 20
5548715.36550829
 10
4632311.495661482
 20
5548715.314122643
 10
4632312.242091222
 20
5548715.26531737
 10
4632320.683412934
 20
5548716.684391575
 10
4632321.890816039
 20
5548715.253279978
 10
4632322.157334408
 20
5548706.743956719
 10
4632322.409466542
 20
5548706.104143085
 10
4632322.551520199
 20
5548705.380194093
 10
4632322.567460339
 20
5548704.963129876
 10
4632322.3150461
 20
5548685.300046098
 10
4632322.281850846
 20
5548681.083257811
 10
4632322.246021348
 20
5548677.46157596
 10
4632322.128991435
 20
5548676.69722302
 10
4632321.122398721
 20
5548673.372096698
 10
4632318.648391138
 20
5548664.997356145
 10
4632316.01896237
 20
5548656.333345276
 10
4632313.585579279
 20
5548648.16199287
 10
4632313.282225857
 20
5548647.487728958
 10
4632312.805754009
 20
5548646.908965408
 10
4632312.191476323
 20
5548646.445559573
 10
4632311.471047442
 20
5548646.162800062
 10
4632310.700909822
 20
5548646.086383781
 10
4632309.935005332
 20
5548646.223223603
 10
4632309.179046742
 20
5548646.636166583
 10
4632308.581653238
 20
5548647.254490065
 10
4632308.193006864
 20
5548648.020993489
 10
4632308.047377207
 20
5548648.852165012
 10
4632307.868933016
 20
5548655.790096796
 10
4632307.409233477
 20
5548667.538659349
 10
4632306.875552781
 20
5548680.472263044
 10
4632306.436980519
 20
5548692.670467429
 10
4632306.022731492
 20
5548704.805498256
 10
4632305.805210295
 20
5548711.033116728
  0
LWPOLYLINE
  5
C1
330
2
100
AcDbEntity
  8
d_ogrodzenie_plotki
 48
0.03
370
    30
100
AcDbPolyline
 90
        2
 70
   128
 43
0.0
 10
4632328.654532313
 20
5546815.293601927
 42
0.0084916866840922
 10
4632330.978874929
 20
5546821.742736407
  0
LWPOLYLINE
  5
C4
330
2
100
AcDbEntity
  8
d_ogrodzenie_plotki
 48
0.03
370
    30
100
AcDbPolyline
 90
        3
 70
   128
 43
0.0
 10
4632332.395563859
 20
5546824.808283485
 42
-0.0063093703784472
 10
4632336.663866915
 20
5546829.862365115
 10
4632340.483432912
 20
5546834.488928716
  0
LWPOLYLINE
  5
C5
330
2
100
AcDbEntity
  8
d_ogrodzenie_plotki
 48
0.03
370
    30
100
AcDbPolyline
 90
        3
 70
   128
 43
0.0
 10
4632447.356858725
 20
5546747.369200373
 10
4632450.870999688
 20
5546763.608948692
 10
4632426.085168854
 20
5546776.478453941
  0
LWPOLYLINE
  5
C6
330
2
100
AcDbEntity
  8
d_ogrodzenie_plotki
 48
0.03
370
    30
100
AcDbPolyline
 90
        4
 70
   128
 43
0.0
 10
4632427.499025797
 20
5546779.548972616
 10
4632426.125761404
 20
5546786.757325098
 10
4632429.868355524
 20
5546844.312476178
 10
4632432.144419204
 20
5546889.973701718
  0
LWPOLYLINE
  5
C7
330
2
100
AcDbEntity
  8
d_ogrodzenie_plotki
 48
0.03
370
    30
100
AcDbPolyline
 90
        3
 70
   128
 43
0.0
 10
4632265.891486354
 20
5546398.759345184
 10
4632261.163126896
 20
5546361.219033216
 10
4632259.144120679
 20
5546344.83729152
  0
LWPOLYLINE
  5
C8
330
2
100
AcDbEntity
  8
d_ogrodzenie_plotki
 48
0.03
370
    30
100
AcDbPolyline
 90
        4
 70
   128
 43
0.0
 10
4632259.070237775
 20
5546342.637116342
 10
4632259.070223524
 20
5546342.636922376
 10
4632227.642188858
 20
5546336.626798136
 10
4632216.748058997
 20
5546324.593358872
  0
LWPOLYLINE
  5
C9
330
2
100
AcDbEntity
  8
d_ogrodzenie_plotki
 48
0.03
370
    30
100
AcDbPolyline
 90
        4
 70
   128
 43
0.0
 10
4632371.341275265
 20
5546377.100871212
 10
4632369.148304499
 20
5546347.622938935
 10
4632369.291682511
 20
5546336.763324728
 10
4632369.291682511
 20
5546336.763324728
  0
LWPOLYLINE
  5
CA
330
2
100
AcDbEntity
  8
d_ogrodzenie_plotki
 48
0.03
370
    30
100
AcDbPolyline
 90
        4
 70
   128
 43
0.0
 10
4632369.265270034
 20
5546334.561810164
 10
4632369.265270031
 20
5546334.561810164
 10
4632390.22702241
 20
5546334.542026153
 10
4632395.651792277
 20
5546334.62975581
  0
LWPOLYLINE
  5
CB
330
2
100
AcDbEntity
  8
d_ogrodzenie_plotki
 48
0.03
370
    30
100
AcDbPolyline
 90
        3
 70
   128
 43
0.0
 10
4632439.413349697
 20
5546704.614050364
 10
4632438.585197227
 20
5546703.133311776
 10
4632419.22765454
 20
5546671.283242817
  0
LWPOLYLINE
  5
CC
330
2
100
AcDbEntity
  8
d_ogrodzenie_plotki
 48
0.03
370
    30
100
AcDbPolyline
 90
        3
 70
   128
 43
0.0
 10
4632392.806520449
 20
5546286.195595294
 10
4632361.846593911
 20
5546254.347488484
 10
4632361.454221318
 20
5546244.128050902
  0
LWPOLYLINE
  5
CD
330
2
100
AcDbEntity
  8
d_ogrodzenie_plotki
 48
0.03
370
    30
100
AcDbPolyline
 90
        3
 70
   128
 43
0.0
 10
4632246.519959486
 20
5546247.475859177
 10
4632249.036738759
 20
5546284.506693406
 10
4632247.378502866
 20
5546290.408231169
  0
LWPOLYLINE
  5
CE
330
2
100
AcDbEntity
  8
d_ogrodzenie_plotki
 48
0.03
100
AcDbPolyline
 90
        7
 70
   128
 43
0.0
 10
4632381.739143888
 20
5546526.865479854
 10
4632385.598632518
 20
5546556.396562204
 10
4632387.34647893
 20
5546571.484703279
 10
4632388.403973098
 20
5546582.518205085
 10
4632390.455395444
 20
5546604.338677393
 10
4632390.886024125
 20
5546610.089292701
 10
4632385.946078604
 20
5546615.784885711
  0
LWPOLYLINE
  5
CF
330
2
100
AcDbEntity
  8
d_ogrodzenie_plotki
 48
0.03
100
AcDbPolyline
 90
       16
 70
   128
 43
0.0
 10
4632386.30046431
 20
5546617.753238009
 10
4632392.411126142
 20
5546621.604250031
 10
4632392.743462204
 20
5546624.580985946
 10
4632394.522713722
 20
5546638.491102462
 10
4632395.519726655
 20
5546647.227877766
 10
4632397.429781597
 20
5546662.530946851
 10
4632398.47756198
 20
5546672.055615026
 10
4632400.637275469
 20
5546687.596073949
 10
4632403.855666637
 20
5546708.808777406
 10
4632405.149092851
 20
5546720.17788876
 10
4632407.028570145
 20
5546741.231522734
 10
4632409.785069278
 20
5546768.417040839
 10
4632410.56511779
 20
5546776.299938162
 10
4632410.56511779
 20
5546776.299938162
 10
4632410.56511779
 20
5546776.299938162
 10
4632409.064511431
 20
5546779.869560581
  0
LWPOLYLINE
  5
D0
330
2
100
AcDbEntity
  8
d_ogrodzenie_plotki
 48
0.03
100
AcDbPolyline
 90
       10
 70
   128
 43
0.0
 10
4632411.542499276
 20
5546792.210492216
 10
4632413.108867257
 20
5546794.111467051
 10
4632414.672940861
 20
5546814.471456436
 10
4632417.969634429
 20
5546857.873132076
 10
4632418.928239852
 20
5546872.155511853
 10
4632419.780824346
 20
5546889.723440516
 10
4632420.1546966
 20
5546896.564471653
 10
4632421.233651323
 20
5546912.090594969
 10
4632416.010651568
 20
5546917.272525917
 10
4632416.010651568
 20
5546917.272525917
  0
LWPOLYLINE
  5
D1
330
2
100
AcDbEntity
  8
d_ogrodzenie_plotki
 48
0.03
100
AcDbPolyline
 90
        9
 70
   128
 43
0.0
 10
4632416.080377189
 20
5546919.271310128
 10
4632416.080377189
 20
5546919.271310128
 10
4632421.160264658
 20
5546923.911045489
 10
4632421.452419225
 20
5546953.644211567
 10
4632421.339050195
 20
5546990.092993627
 10
4632421.074452286
 20
5547023.202082649
 10
4632421.017345329
 20
5547031.917356576
 10
4632415.365194431
 20
5547038.580311241
 10
4632415.365194431
 20
5547038.580311241
  0
LWPOLYLINE
  5
D2
330
2
100
AcDbEntity
  8
d_ogrodzenie_plotki
 48
0.03
370
    30
100
AcDbPolyline
 90
        6
 70
   128
 43
0.0
 10
4632415.303300887
 20
5547040.579353311
 10
4632415.303300887
 20
5547040.579353311
 10
4632420.362001974
 20
5547046.797022069
 10
4632419.224549373
 20
5547075.312181223
 10
4632417.602191625
 20
5547107.714539917
 10
4632415.109374936
 20
5547140.443823211
  0
LWPOLYLINE
  5
D3
330
2
100
AcDbEntity
  8
d_ogrodzenie_plotki
 48
0.03
370
    30
100
AcDbPolyline
 90
        8
 70
   128
 43
0.0
 10
4632305.352154232
 20
5546530.289871261
 10
4632309.200024045
 20
5546547.008834623
 10
4632314.9335298
 20
5546575.521056204
 10
4632319.147477115
 20
5546597.130492844
 10
4632323.137116392
 20
5546617.822085732
 10
4632324.078300069
 20
5546621.750203349
 10
4632329.848038096
 20
5546625.88487835
 10
4632329.848038096
 20
5546625.884878351
  0
LWPOLYLINE
  5
D4
330
2
100
AcDbEntity
  8
d_ogrodzenie_plotki
 48
0.03
370
    30
100
AcDbPolyline
 90
       28
 70
   128
 43
0.0
 10
4632330.202423806
 20
5546627.853230647
 10
4632330.202423806
 20
5546627.853230647
 10
4632326.512526853
 20
5546633.428255737
 10
4632329.661969604
 20
5546648.255272073
 10
4632335.158455914
 20
5546676.662360741
 10
4632345.565175058
 20
5546728.312685107
 10
4632344.122754672
 20
5546745.227835765
 10
4632343.722121543
 20
5546746.533145754
 10
4632341.980603599
 20
5546751.691191412
 10
4632340.900696586
 20
5546756.010711784
 10
4632338.678467672
 20
5546764.028115967
 10
4632338.549856524
 20
5546764.461605935
 10
4632338.492289637
 20
5546764.719439011
 10
4632338.482674129
 20
5546765.301018047
 10
4632338.640832375
 20
5546766.414905663
 10
4632340.905842621
 20
5546784.388055795
 10
4632341.384638889
 20
5546788.631152842
 10
4632341.695211758
 20
5546792.044202637
 10
4632342.028596264
 20
5546794.524696722
 10
4632342.351004752
 20
5546795.445922599
 10
4632343.024984526
 20
5546796.180150152
 10
4632343.934217873
 20
5546796.588921922
 10
4632344.911044958
 20
5546796.605591196
 10
4632345.774846604
 20
5546796.44337207
 10
4632349.266828551
 20
5546795.843651872
 10
4632352.009381798
 20
5546795.401092949
 10
4632357.704738884
 20
5546803.417585421
 10
4632357.704738884
 20
5546803.417585421
  0
LWPOLYLINE
  5
D5
330
2
100
AcDbEntity
  8
d_ogrodzenie_plotki
 48
0.03
370
    30
100
AcDbPolyline
 90
       11
 70
   128
 43
0.0
 10
4632361.411982071
 20
5546815.273949341
 10
4632361.411982071
 20
5546815.273949342
 10
4632360.031424412
 20
5546817.503930364
 10
4632360.641274508
 20
5546831.842858267
 10
4632362.510101536
 20
5546851.874908776
 10
4632362.942978087
 20
5546863.183682578
 10
4632364.017705314
 20
5546879.434126499
 10
4632365.98624178
 20
5546907.375138617
 10
4632366.054960102
 20
5546914.91191244
 10
4632370.51832144
 20
5546918.859481122
 10
4632370.51832144
 20
5546918.859481122
  0
LWPOLYLINE
  5
D6
330
2
100
AcDbEntity
  8
d_ogrodzenie_plotki
 48
0.03
370
    30
100
AcDbPolyline
 90
        7
 70
   128
 43
0.0
 10
4632370.588047062
 20
5546920.858265337
 10
4632366.706474163
 20
5546925.140159389
 10
4632366.79536329
 20
5546958.731618069
 10
4632367.442343086
 20
5547010.078392077
 10
4632366.751043634
 20
5547032.93401794
 10
4632370.826537151
 20
5547037.201323083
 10
4632370.826537151
 20
5547037.201323083
  0
LWPOLYLINE
  5
D7
330
2
100
AcDbEntity
  8
d_ogrodzenie_plotki
 48
0.03
370
    30
100
AcDbPolyline
 90
        5
 70
   128
 43
0.0
 10
4632370.764643607
 20
5547039.200365152
 10
4632366.300832397
 20
5547044.228965346
 10
4632365.257313388
 20
5547074.051952336
 10
4632363.701890525
 20
5547112.27621158
 10
4632362.034713884
 20
5547137.204914203
  0
LWPOLYLINE
  5
D8
330
2
100
AcDbEntity
  8
d_ogrodzenie_plotki
 48
0.03
370
    30
100
AcDbPolyline
 90
        2
 70
   128
 43
0.0
 10
4632278.344228047
 20
5546343.595895382
 10
4632273.549522389
 20
5546343.791762552
  0
LWPOLYLINE
  5
D9
330
2
100
AcDbEntity
  8
d_ogrodzenie_plotki
 48
0.03
370
    30
100
AcDbPolyline
 90
        2
 70
   128
 43
0.0
 10
4632273.387078369
 20
5546341.597767683
 10
4632278.16103977
 20
5546341.102616006
  0
LWPOLYLINE
  5
DA
330
2
100
AcDbEntity
  8
d_ogrodzenie_plotki
 48
0.03
370
    30
100
AcDbPolyline
 90
        2
 70
   128
 43
0.0
 10
4632347.168711987
 20
5546338.539166172
 10
4632354.715841696
 20
5546337.834252915
  0
LWPOLYLINE
  5
DB
330
2
100
AcDbEntity
  8
d_ogrodzenie_plotki
 48
0.03
370
    30
100
AcDbPolyline
 90
        2
 70
   128
 43
0.0
 10
4632354.547144363
 20
5546335.640717496
 10
4632346.985523709
 20
5546336.045886795
  0
LWPOLYLINE
  5
DC
330
2
100
AcDbEntity
  8
d_ogrodzenie_plotki
 48
0.03
370
    30
100
AcDbPolyline
 90
        3
 70
   128
 43
0.0
 10
4632361.098011728
 20
5547136.145463874
 10
4632361.036673726
 20
5547137.143580926
 10
4632362.034790778
 20
5547137.204918929
  0
LWPOLYLINE
  5
DD
330
2
100
AcDbEntity
  8
d_ogrodzenie_plotki
 48
0.03
370
    30
100
AcDbPolyline
 90
        3
 70
   128
 43
0.0
 10
4632305.352154232
 20
5546530.289871261
 10
4632304.369835659
 20
5546530.477088301
 10
4632304.557052701
 20
5546531.459406876
  0
LWPOLYLINE
  5
DE
330
2
100
AcDbEntity
  8
d_ogrodzenie_plotki
 48
0.03
370
    30
100
AcDbPolyline
 90
        3
 70
   128
 43
0.0
 10
4632416.16882999
 20
5547139.50704416
 10
4632416.107491986
 20
5547140.505161213
 10
4632415.109374936
 20
5547140.443823211
  0
LWPOLYLINE
  5
DF
330
2
100
AcDbEntity
  8
d_ogrodzenie_plotki
 48
0.03
370
    30
100
AcDbPolyline
 90
        3
 70
   128
 43
0.0
 10
4632380.40292577
 20
5546515.854512168
 10
4632381.385244344
 20
5546515.667295129
 10
4632381.572461383
 20
5546516.649613704
  0
LWPOLYLINE
  5
E0
330
2
100
AcDbEntity
  8
d_ogrodzenie_plotki
 48
0.03
370
    30
100
AcDbPolyline
 90
        3
 70
   128
 43
0.0
 10
4632339.069958724
 20
5546834.443204394
 10
4632339.753833657
 20
5546835.172803651
 10
4632340.483432912
 20
5546834.488928716
  0
LWPOLYLINE
  5
E1
330
2
100
AcDbEntity
  8
d_ogrodzenie_plotki
 48
0.03
370
    30
100
AcDbPolyline
 90
        3
 70
   128
 43
0.0
 10
4632328.654532313
 20
5546815.293601927
 10
4632327.709126204
 20
5546815.619496518
 10
4632328.035020797
 20
5546816.56490263
  0
LWPOLYLINE
  5
E2
330
2
100
AcDbEntity
  8
d_ogrodzenie_plotki
 48
0.03
370
    30
100
AcDbPolyline
 90
        3
 70
   128
 43
0.0
 10
4632419.22765454
 20
5546671.283242817
 10
4632420.122121995
 20
5546670.836109758
 10
4632420.569255053
 20
5546671.730577215
  0
LWPOLYLINE
  5
E3
330
2
100
AcDbEntity
  8
d_ogrodzenie_plotki
 48
0.03
370
    30
100
AcDbPolyline
 90
        3
 70
   128
 43
0.0
 10
4632264.785566339
 20
5546397.877902662
 10
4632264.897805084
 20
5546398.871583931
 10
4632265.891486354
 20
5546398.759345184
  0
LWPOLYLINE
  5
E4
330
2
100
AcDbEntity
  8
d_ogrodzenie_plotki
 48
0.03
370
    30
100
AcDbPolyline
 90
        3
 70
   128
 43
0.0
 10
4632433.113099351
 20
5546888.943333448
 10
4632433.143943412
 20
5546889.942857657
 10
4632432.144419204
 20
5546889.973701718
  0
LWPOLYLINE
  5
E5
330
2
100
AcDbEntity
  8
d_ogrodzenie_plotki
 48
0.03
370
    30
100
AcDbPolyline
 90
        3
 70
   128
 43
0.0
 10
4632372.253963711
 20
5546376.020593563
 10
4632372.337758313
 20
5546377.01707661
 10
4632371.341275265
 20
5546377.100871212
  0
LWPOLYLINE
  5
E6
330
2
100
AcDbEntity
  8
d_ogrodzenie_plotki
 48
0.03
370
    30
100
AcDbPolyline
 90
        3
 70
   128
 43
0.0
 10
4632361.454221318
 20
5546244.128050902
 10
4632362.453490213
 20
5546244.089818991
 10
4632362.491722123
 20
5546245.089087886
  0
LWPOLYLINE
  5
E7
330
2
100
AcDbEntity
  8
d_ogrodzenie_plotki
 48
0.03
370
    30
100
AcDbPolyline
 90
        3
 70
   128
 43
0.0
 10
4632245.561012133
 20
5546248.514864834
 10
4632245.521177733
 20
5546247.515658536
 10
4632246.520384029
 20
5546247.47582414
  0
LWPOLYLINE
  5
E8
330
2
100
AcDbEntity
  8
d_ogrodzenie_plotki
 48
0.03
370
    30
100
AcDbPolyline
 90
       39
 70
   129
 43
0.0
 10
4632240.316097584
 20
5546328.189067358
 10
4632244.655007532
 20
5546327.619547938
 10
4632251.006422484
 20
5546321.805539078
 10
4632251.510621594
 20
5546321.342775901
 10
4632254.987263177
 20
5546318.147019818
 10
4632255.437924441
 20
5546317.625393596
 10
4632255.763535262
 20
5546317.003837722
 10
4632255.938879715
 20
5546316.323768641
 10
4632255.954105255
 20
5546315.633343064
 10
4632254.980684047
 20
5546305.205514878
 10
4632254.161360114
 20
5546295.65693217
 10
4632254.09995483
 20
5546294.941301388
 10
4632253.867694404
 20
5546291.885537355
 10
4632253.665995543
 20
5546290.968080122
 10
4632253.210471431
 20
5546290.129494727
 10
4632252.540339084
 20
5546289.450626634
 10
4632251.708611854
 20
5546288.984701785
 10
4632250.779200342
 20
5546288.767830999
 10
4632249.825741499
 20
5546288.81786136
 10
4632248.923718659
 20
5546289.131041895
 10
4632248.156501325
 20
5546289.673909066
 10
4632247.378502866
 20
5546290.408231169
 10
4632240.966924015
 20
5546296.343976869
 10
4632239.918147095
 20
5546297.294565198
 10
4632239.628287298
 20
5546297.557866515
 10
4632232.160360677
 20
5546304.845026161
 10
4632228.524128168
 20
5546308.223751997
 10
4632216.0263911
 20
5546319.774952851
 10
4632215.57173819
 20
5546320.310992572
 10
4632215.253503875
 20
5546320.952188367
 10
4632215.098922232
 20
5546321.649846909
 10
4632215.116522143
 20
5546322.365417276
 10
4632215.305607444
 20
5546323.055582599
 10
4632215.654775658
 20
5546323.679654407
 10
4632216.144434093
 20
5546324.202225447
 10
4632216.748058997
 20
5546324.593358872
 10
4632217.598895634
 20
5546324.857114118
 10
4632228.670416553
 20
5546326.478712028
 10
4632229.865644295
 20
5546326.636821768
  0
LWPOLYLINE
  5
E9
330
2
100
AcDbEntity
  8
d_ogrodzenie_plotki
 48
0.03
370
    30
100
AcDbPolyline
 90
        3
 70
   128
 43
0.0
 10
4632381.739143888
 20
5546526.865479854
 10
4632381.422936036
 20
5546521.220633774
 10
4632380.40292577
 20
5546515.854512168
  0
LWPOLYLINE
  5
EA
330
2
100
AcDbEntity
  8
d_ogrodzenie_plotki
 48
0.03
370
    30
100
AcDbPolyline
 90
       44
 70
   129
 43
0.0
 10
4632444.946259665
 20
5546750.435351955
 10
4632445.487840331
 20
5546750.314315175
 10
4632446.003016899
 20
5546750.081327669
 10
4632446.459756471
 20
5546749.748640974
 10
4632446.839604451
 20
5546749.329655786
 10
4632447.126029983
 20
5546748.842609554
 10
4632447.30763678
 20
5546748.306675483
 10
4632447.37630574
 20
5546747.744446456
 10
4632447.329765008
 20
5546747.190240847
 10
4632443.853567131
 20
5546728.762990812
 10
4632443.60174177
 20
5546727.378827458
 10
4632443.434707083
 20
5546726.320885442
 10
4632440.435071482
 20
5546706.872858627
 10
4632440.389811747
 20
5546706.602507256
 10
4632440.197460392
 20
5546705.886564044
 10
4632439.867224262
 20
5546705.212590186
 10
4632439.413349697
 20
5546704.614050364
 10
4632438.85354904
 20
5546704.114292349
 10
4632438.207335312
 20
5546703.730880574
 10
4632437.500253711
 20
5546703.479057385
 10
4632436.756947321
 20
5546703.367694196
 10
4632436.016156551
 20
5546703.400912942
 10
4632431.979459862
 20
5546703.97618532
 10
4632429.44523829
 20
5546704.354668511
 10
4632428.307721095
 20
5546704.514691531
 10
4632420.667535531
 20
5546705.724573489
 10
4632419.967657711
 20
5546705.907824684
 10
4632419.308563759
 20
5546706.229527524
 10
4632418.725650347
 20
5546706.674493495
 10
4632418.241563661
 20
5546707.225318263
 10
4632417.875071483
 20
5546707.860639327
 10
4632417.640489892
 20
5546708.555771577
 10
4632417.54704781
 20
5546709.284756571
 10
4632417.598286848
 20
5546710.008084363
 10
4632418.035083803
 20
5546712.554962048
 10
4632420.875739196
 20
5546729.459062121
 10
4632423.05046138
 20
5546744.54233198
 10
4632423.943583467
 20
5546750.547976443
 10
4632424.304060654
 20
5546751.555672186
 10
4632425.035379929
 20
5546752.364174229
 10
4632426.020355196
 20
5546752.832288284
 10
4632427.089280229
 20
5546752.887665075
 10
4632438.752605506
 20
5546751.194179823
 10
4632440.249998793
 20
5546750.989513033
  0
LWPOLYLINE
  5
EB
330
2
100
AcDbEntity
  8
d_ogrodzenie_plotki
 48
0.03
370
    30
100
AcDbPolyline
 90
        3
 70
     0
 43
0.0
 10
4632436.709118904
 20
5546336.761430405
 10
4632437.166056221
 20
5546342.915842077
 10
4632415.08907214
 20
5546351.585360802
  0
LWPOLYLINE
  5
EC
330
2
100
AcDbEntity
  8
d_ogrodzenie_plotki
 48
0.03
370
    30
100
AcDbPolyline
 90
       42
 70
   128
 43
0.0
 10
4632415.08907214
 20
5546351.585360802
 42
0.4200642055277506
 10
4632410.323331982
 20
5546350.598187578
 10
4632409.607240421
 20
5546349.767004731
 10
4632406.657179003
 20
5546346.51586335
 10
4632400.115870738
 20
5546339.601603303
 10
4632393.244391662
 20
5546331.948524105
 10
4632387.270279174
 20
5546325.726747527
 10
4632378.99039735
 20
5546317.04614084
 10
4632374.495474245
 20
5546312.353811791
 10
4632371.063430357
 20
5546308.725534544
 10
4632365.990135848
 20
5546303.244245478
 10
4632365.460518935
 20
5546302.546436879
 10
4632365.071763492
 20
5546301.750003172
 10
4632364.845008214
 20
5546300.89440735
 10
4632364.788267409
 20
5546300.010063045
 10
4632364.903738865
 20
5546299.13282481
 10
4632365.187286848
 20
5546298.293485944
 10
4632365.627542186
 20
5546297.525832528
 10
4632366.202369848
 20
5546296.864629256
 10
4632370.888637178
 20
5546292.431534672
 10
4632377.160461309
 20
5546286.58802675
 10
4632377.777339629
 20
5546286.103394773
 10
4632378.473921519
 20
5546285.724985543
 10
4632379.224614791
 20
5546285.4684347
 10
4632379.999174441
 20
5546285.342694897
 10
4632384.729761242
 20
5546284.978894782
 10
4632385.239175173
 20
5546284.935844489
 10
4632388.923170021
 20
5546284.647537604
 10
4632389.996563101
 20
5546284.686459719
 10
4632391.044459311
 20
5546284.970789669
 10
4632391.999731782
 20
5546285.484713151
 10
4632392.804361134
 20
5546286.193205227
 10
4632397.669486047
 20
5546291.578229589
 10
4632408.403883563
 20
5546303.97777303
 10
4632409.709113326
 20
5546305.423877375
 10
4632418.011129797
 20
5546314.383057547
 10
4632428.378105741
 20
5546326.317539344
 10
4632429.90430095
 20
5546328.02134614
 10
4632435.695671842
 20
5546334.368768018
 10
4632436.208037072
 20
5546335.075983344
 10
4632436.553952364
 20
5546335.890430468
 10
4632436.709118904
 20
5546336.761430405
  0
ENDSEC
  0
SECTION
  2
OBJECTS
  0
DICTIONARY
  5
A
330
0
100
AcDbDictionary
281
     1
  3
ACAD_COLOR
350
111
  3
ACAD_GROUP
350
10C
  3
ACAD_LAYOUT
350
EF
  3
ACAD_MATERIAL
350
D
  3
ACAD_MLEADERSTYLE
350
114
  3
ACAD_MLINESTYLE
350
10D
  3
ACAD_PLOTSETTINGS
350
10E
  3
ACAD_PLOTSTYLENAME
350
9
  3
ACAD_SCALELIST
350
112
  3
ACAD_TABLESTYLE
350
113
  3
ACAD_VISUALSTYLE
350
106
  3
ACDB_RECOMPOSE_DATA
350
13D
  3
AcDbVariableDictionary
350
135
  3
AcDsDecomposeData
350
144
1001
ADE
1000
ADE02C004
1000
[Query]
1000
CaseSensitiveMatch=0
1000
SaveCurrQueryInSession=1
1000
MkSelSetWithQryObj=0
1000
ShowBlockAsInsPt=0
1000
CreateAssociativeHatchObjects=0
1000
ReferenceBoundaryForAreaLocation=1
1000
ShowImageAsBoundary=1
1000
DefaultJoinOperator=2
1000
ColorForAdd=red
1000
ColorForRemove=red
1000
BlockLocnForQuery=1
1000
TextLocnForQuery=1
1000
IncludeAllObjectsInGroups=0
1000
AlwaysUseLibraryDefinitions=0
1000
PreviewDefinitionsFrom=2
1000
[Save Back]
1000
RedefineBlockDefinitions=1
1000
RedefineLayerDefinitions=1
1000
RedefineTextStyleDefinitions=1
1000
RemoveUnusedGroups=1
1000
EraseSavedBackObjects=1
1000
RemoveLockAfterSave=1
1000
CreateHistoryFileOfChanges=0
1000
CreateBackupFileOfSourceDwg=1
1000
DontAddObjectsToSaveSet=0
1000
MarkObjectsForEditingWithoutPrompting=0
1000
FdoDontAddObjsToSvSet=0
1000
FdoEditWithoutPrompt=1
1000
FdoRemUnusedGrps=1
1000
FdoEraseSvdBkObjs=1
1000
FdoRemoveLockOnSave=1
1000
FdoTesselationMaxPointsDistance=0
1000
FdoTesselationMaxCurvesDistance=0
1000
[Coordinate Transformation]
1000
RestoreLastActiveDwgsOnStartup=1
1000
ActivateDwgsOnAttach=1
1000
AdjustSizesAndScalesForChangesInUnits=1
1000
AdjustRotationsForMapDistortions=1
1000
AdjustSizesAndScalesForMapDistortions=1
1000
AdjustElevations=1
1000
AdjustZeroRotationObjects=1
1000
ReconnectDbOnWSOpen=1
1000
NoOfSQLConditionsInHistory=10
  0
DICTIONARY
  5
F7
330
F6
100
AcDbDictionary
280
     1
281
     1
  3
ACAD_LAYERSTATES
360
F8
  3
ACLYDICTIONARY
360
FA
  0
DICTIONARY
  5
7
330
6
100
AcDbDictionary
280
     1
281
     1
  0
DICTIONARY
  5
28
330
27
100
AcDbDictionary
280
     1
281
     1
  0
DICTIONARY
  5
C3
330
C2
100
AcDbDictionary
280
     1
281
     1
  0
DICTIONARY
  5
3
330
2
100
AcDbDictionary
280
     1
281
     1
  3
ACAD_SORTENTS
360
134
  0
DICTIONARY
  5
111
102
{ACAD_REACTORS
330
A
102
}
330
A
100
AcDbDictionary
281
     1
  0
DICTIONARY
  5
10C
102
{ACAD_REACTORS
330
A
102
}
330
A
100
AcDbDictionary
281
     1
  0
DICTIONARY
  5
EF
102
{ACAD_REACTORS
330
A
102
}
330
A
100
AcDbDictionary
281
     1
  3
Layout1
350
F5
  3
Model
350
EE
  0
DICTIONARY
  5
D
102
{ACAD_REACTORS
330
A
102
}
330
A
100
AcDbDictionary
281
     1
  3
ByBlock
350
110
  3
ByLayer
350
10F
  3
Global
350
C
  0
DICTIONARY
  5
114
102
{ACAD_REACTORS
330
A
102
}
330
A
100
AcDbDictionary
281
     1
  0
DICTIONARY
  5
10D
102
{ACAD_REACTORS
330
A
102
}
330
A
100
AcDbDictionary
281
     1
  3
Standard
350
115
  0
DICTIONARY
  5
10E
102
{ACAD_REACTORS
330
A
102
}
330
A
100
AcDbDictionary
281
     1
  0
ACDBDICTIONARYWDFLT
  5
9
102
{ACAD_REACTORS
330
A
102
}
330
A
100
AcDbDictionary
281
     1
  3
Normal
350
8
100
AcDbDictionaryWithDefault
340
8
  0
DICTIONARY
  5
112
102
{ACAD_REACTORS
330
A
102
}
330
A
100
AcDbDictionary
281
     1
  3
*A1
350
11A
  3
*A2
350
11B
  3
*A3
350
11C
  3
*A4
350
11D
  3
*A5
350
11E
  3
*A6
350
11F
  3
*A7
350
120
  3
A0
350
121
  3
A1
350
122
  3
A2
350
123
  3
A3
350
124
  3
A4
350
125
  3
A5
350
126
  3
A6
350
127
  3
A7
350
128
  3
A8
350
129
  3
A9
350
12A
  3
B0
350
12B
  3
B1
350
12C
  3
B2
350
12D
  3
B3
350
12E
  3
B4
350
12F
  3
B5
350
130
  3
B6
350
131
  3
B7
350
132
  3
B8
350
133
  0
DICTIONARY
  5
113
102
{ACAD_REACTORS
330
A
102
}
330
A
100
AcDbDictionary
281
     1
  3
Standard
350
116
  0
DICTIONARY
  5
106
102
{ACAD_REACTORS
330
A
102
}
330
A
100
AcDbDictionary
281
     1
  3
2dWireframe
350
105
  3
Realistic
350
118
  3
Wireframe
350
119
  0
XRECORD
  5
13D
102
{ACAD_REACTORS
330
A
102
}
330
A
100
AcDbXrecord
280
     1
 90
        1
330
116
  0
DICTIONARY
  5
135
102
{ACAD_REACTORS
330
A
102
}
330
A
100
AcDbDictionary
281
     1
  3
CANNOSCALE
350
13A
  3
CMLEADERSTYLE
350
137
  3
CTABLESTYLE
350
136
  3
CVIEWDETAILSTYLE
350
138
  3
CVIEWSECTIONSTYLE
350
139
  3
LIGHTINGUNITS
350
13B
  0
DICTIONARY
  5
144
102
{ACAD_REACTORS
330
A
102
}
330
A
100
AcDbDictionary
281
     1
  3
AcDsRecords
350
146
  3
AcDsSchemas
350
145
1001
ACAD
1070
     2
  0
DICTIONARY
  5
F8
102
{ACAD_REACTORS
330
F7
102
}
330
F7
100
AcDbDictionary
281
     1
1001
AcLayerTools
1000
16
1000
0
  0
DICTIONARY
  5
FA
102
{ACAD_REACTORS
330
F7
102
}
330
F7
100
AcDbDictionary
281
     1
1001
ACAD
1000
<XrefRoot
  0
SORTENTSTABLE
  5
134
102
{ACAD_REACTORS
330
3
102
}
330
3
100
AcDbSortentsTable
330
2
331
3C
  5
43
331
77
  5
80
331
38
  5
3E
331
34
  5
3A
331
73
  5
7C
331
30
  5
36
331
B4
  5
2B
331
B0
  5
BE
331
AC
  5
BA
331
A8
  5
B6
331
6F
  5
78
331
2C
  5
32
331
6B
  5
74
331
67
  5
70
331
24
  5
2E
331
20
  5
21
331
A4
  5
B2
331
A0
  5
AF
331
9C
  5
AC
331
98
  5
A4
331
5F
  5
67
331
1C
  5
1D
331
5B
  5
62
331
57
  5
5E
331
53
  5
5A
331
94
  5
9E
331
90
  5
99
331
8C
  5
95
331
88
  5
91
331
4F
  5
56
331
4B
  5
52
331
47
  5
4E
331
43
  5
4A
331
84
  5
8D
331
80
  5
89
331
BF
  5
C0
331
BB
  5
9F
331
7C
  5
85
331
78
  5
81
331
3F
  5
46
331
3B
  5
42
331
76
  5
7F
331
37
  5
3D
331
33
  5
39
331
72
  5
7B
331
B7
  5
24
331
B3
  5
2D
331
AF
  5
BD
331
AB
  5
B9
331
2F
  5
35
331
6E
  5
77
331
2B
  5
31
331
6A
  5
73
331
66
  5
6F
331
23
  5
2C
331
62
  5
6C
331
A7
  5
B5
331
A3
  5
B1
331
9F
  5
AE
331
9B
  5
AB
331
1F
  5
20
331
5E
  5
66
331
1B
  5
1C
331
5A
  5
61
331
56
  5
5D
331
52
  5
59
331
97
  5
A3
331
93
  5
9C
331
8F
  5
98
331
8B
  5
94
331
4E
  5
55
331
4A
  5
51
331
46
  5
4D
331
42
  5
49
331
87
  5
90
331
83
  5
8C
331
7F
  5
88
331
BE
  5
A9
331
BA
  5
6B
331
7B
  5
84
331
3E
  5
45
331
3A
  5
41
331
75
  5
7E
331
36
  5
3C
331
32
  5
38
331
71
  5
7A
331
B6
  5
19
331
B2
  5
40
331
AE
  5
BC
331
AA
  5
B8
331
2E
  5
34
331
6D
  5
76
331
69
  5
72
331
65
  5
6E
331
26
  5
30
331
22
  5
26
331
61
  5
69
331
A6
  5
B4
331
A2
  5
B0
331
9E
  5
AD
331
9A
  5
A6
331
1E
  5
1F
331
5D
  5
65
331
1A
  5
1B
331
59
  5
60
331
55
  5
5C
331
51
  5
58
331
96
  5
A2
331
92
  5
9B
331
8E
  5
97
331
8A
  5
93
331
4D
  5
54
331
49
  5
50
331
45
  5
4C
331
41
  5
48
331
86
  5
8F
331
82
  5
8B
331
BD
  5
AA
331
7E
  5
87
331
B9
  5
6A
331
7A
  5
83
331
3D
  5
44
331
39
  5
3F
331
35
  5
3B
331
74
  5
7D
331
31
  5
37
331
70
  5
79
331
B5
  5
25
331
B1
  5
BF
331
AD
  5
BB
331
A9
  5
B7
331
2D
  5
33
331
6C
  5
75
331
68
  5
71
331
64
  5
6D
331
25
  5
2F
331
21
  5
22
331
60
  5
68
331
A5
  5
B3
331
99
  5
A5
331
1D
  5
1E
331
5C
  5
64
331
19
  5
1A
331
58
  5
5F
331
54
  5
5B
331
50
  5
57
331
95
  5
A0
331
91
  5
9A
331
8D
  5
96
331
89
  5
92
331
4C
  5
53
331
48
  5
4F
331
44
  5
4B
331
40
  5
47
331
85
  5
8E
331
81
  5
8A
331
C0
  5
A8
331
BC
  5
A7
331
7D
  5
86
331
79
  5
82
331
B8
  5
23
  0
LAYOUT
  5
F5
102
{ACAD_REACTORS
330
EF
102
}
330
EF
100
AcDbPlotSettings
  1

  2
C:\Documents and Settings\basas\Application Data\Autodesk\AutoCAD 2005\R16.1\enu\plotters\Default Windows System Printer.pc3
  4

  6

 40
0.0
 41
0.0
 42
0.0
 43
0.0
 44
0.0
 45
0.0
 46
0.0
 47
0.0
 48
0.0
 49
0.0
140
0.0
141
0.0
142
1.0
143
1.0
 70
   688
 72
     0
 73
     0
 74
     5
  7

 75
    16
147
1.0
 76
     0
 77
     2
 78
   300
148
0.0
149
0.0
100
AcDbLayout
  1
Layout1
 70
     1
 71
     1
 10
0.0
 20
0.0
 11
12.0
 21
9.0
 12
0.0
 22
0.0
 32
0.0
 14
0.0
 24
0.0
 34
0.0
 15
0.0
 25
0.0
 35
0.0
146
0.0
 13
0.0
 23
0.0
 33
0.0
 16
1.0
 26
0.0
 36
0.0
 17
0.0
 27
1.0
 37
0.0
 76
     0
330
F2
  0
LAYOUT
  5
EE
102
{ACAD_XDICTIONARY
360
F0
102
}
102
{ACAD_REACTORS
330
EF
102
}
330
EF
100
AcDbPlotSettings
  1

  2
none_device
  4
ISO_A4_(210.00_x_297.00_MM)
  6

 40
7.5
 41
20.0
 42
7.5
 43
20.0
 44
210.0
 45
297.0
 46
11.54999923706054
 47
-13.65000009536743
 48
0.0
 49
0.0
140
0.0
141
0.0
142
1.0
143
8.704084754739808
 70
 11952
 72
     1
 73
     0
 74
     0
  7

 75
     0
147
0.1148885871608098
 76
     0
 77
     2
 78
   300
148
0.0
149
0.0
100
AcDbLayout
  1
Model
 70
     1
 71
     0
 10
0.0
 20
0.0
 11
12.0
 21
9.0
 12
0.0
 22
0.0
 32
0.0
 14
0.0
 24
0.0
 34
0.0
 15
0.0
 25
0.0
 35
0.0
146
0.0
 13
0.0
 23
0.0
 33
0.0
 16
1.0
 26
0.0
 36
0.0
 17
0.0
 27
1.0
 37
0.0
 76
     0
330
2
331
104
1001
ACAD_PSEXT
1000
None
1000
None
1000
Not applicable
1000
The layout will not be plotted unless a new plotter configuration name is selected.
1070
     0
  0
MATERIAL
  5
110
102
{ACAD_REACTORS
330
D
102
}
330
D
100
AcDbMaterial
  1
ByBlock
 94
       63
  0
MATERIAL
  5
10F
102
{ACAD_REACTORS
330
D
102
}
330
D
100
AcDbMaterial
  1
ByLayer
 94
       63
  0
MATERIAL
  5
C
102
{ACAD_XDICTIONARY
360
E
102
}
102
{ACAD_REACTORS
330
D
102
}
330
D
100
AcDbMaterial
  1
Global
 43
0.0007999999797903
 43
0.0
 43
0.0
 43
0.0
 43
0.0
 43
0.0007999999797903
 43
0.0
 43
0.0
 43
0.0
 43
0.0
 43
1.0
 43
0.0
 43
0.0
 43
0.0
 43
0.0
 43
1.0
 49
0.0007999999797903
 49
0.0
 49
0.0
 49
0.0
 49
0.0
 49
0.0007999999797903
 49
0.0
 49
0.0
 49
0.0
 49
0.0
 49
1.0
 49
0.0
 49
0.0
 49
0.0
 49
0.0
 49
1.0
142
0.0007999999797903
142
0.0
142
0.0
142
0.0
142
0.0
142
0.0007999999797903
142
0.0
142
0.0
142
0.0
142
0.0
142
1.0
142
0.0
142
0.0
142
0.0
142
0.0
142
1.0
144
0.0007999999797903
144
0.0
144
0.0
144
0.0
144
0.0
144
0.0007999999797903
144
0.0
144
0.0
144
0.0
144
0.0
144
1.0
144
0.0
144
0.0
144
0.0
144
0.0
144
1.0
 94
       63
1001
ACAD
1070
    -1
1070
     3
1070
     0
1000

1071
        0
1070
     0
  0
MLINESTYLE
  5
115
102
{ACAD_REACTORS
330
10D
102
}
330
10D
100
AcDbMlineStyle
  2
STANDARD
 70
     0
  3

 62
   256
 51
90.0
 52
90.0
 71
     2
 49
0.5
 62
   256
  6
BYLAYER
 49
-0.5
 62
   256
  6
BYLAYER
  0
ACDBPLACEHOLDER
  5
8
102
{ACAD_REACTORS
330
9
102
}
330
9
  0
SCALE
  5
11A
102
{ACAD_REACTORS
330
112
102
}
330
112
100
AcDbScale
 70
     0
300
1:1
140
1.0
141
0.001
290
     0
  0
SCALE
  5
11B
102
{ACAD_REACTORS
330
112
102
}
330
112
100
AcDbScale
 70
     0
300
1:2
140
1.0
141
0.002
290
     0
  0
SCALE
  5
11C
102
{ACAD_REACTORS
330
112
102
}
330
112
100
AcDbScale
 70
     0
300
1:5
140
1.0
141
0.005
290
     0
  0
SCALE
  5
11D
102
{ACAD_REACTORS
330
112
102
}
330
112
100
AcDbScale
 70
     0
300
1:10
140
1.0
141
0.01
290
     0
  0
SCALE
  5
11E
102
{ACAD_REACTORS
330
112
102
}
330
112
100
AcDbScale
 70
     0
300
1:20
140
1.0
141
0.02
290
     0
  0
SCALE
  5
11F
102
{ACAD_REACTORS
330
112
102
}
330
112
100
AcDbScale
 70
     0
300
1:50
140
1.0
141
0.05
290
     0
  0
SCALE
  5
120
102
{ACAD_REACTORS
330
112
102
}
330
112
100
AcDbScale
 70
     0
300
1:100
140
1.0
141
0.1
290
     0
  0
SCALE
  5
121
102
{ACAD_REACTORS
330
112
102
}
330
112
100
AcDbScale
 70
     0
300
1:1000_1
140
1.0
141
1.0
290
     0
  0
SCALE
  5
122
102
{ACAD_REACTORS
330
112
102
}
330
112
100
AcDbScale
 70
     0
300
1:1000
140
1.0
141
1.0
290
     1
  0
SCALE
  5
123
102
{ACAD_REACTORS
330
112
102
}
330
112
100
AcDbScale
 70
     0
300
1:1_1
140
1.0
141
1.0
290
     0
  0
SCALE
  5
124
102
{ACAD_REACTORS
330
112
102
}
330
112
100
AcDbScale
 70
     0
300
1:2_1
140
1.0
141
2.0
290
     0
  0
SCALE
  5
125
102
{ACAD_REACTORS
330
112
102
}
330
112
100
AcDbScale
 70
     0
300
1:4
140
1.0
141
4.0
290
     0
  0
SCALE
  5
126
102
{ACAD_REACTORS
330
112
102
}
330
112
100
AcDbScale
 70
     0
300
1:5_1
140
1.0
141
5.0
290
     0
  0
SCALE
  5
127
102
{ACAD_REACTORS
330
112
102
}
330
112
100
AcDbScale
 70
     0
300
1:8
140
1.0
141
8.0
290
     0
  0
SCALE
  5
128
102
{ACAD_REACTORS
330
112
102
}
330
112
100
AcDbScale
 70
     0
300
1:10_1
140
1.0
141
10.0
290
     0
  0
SCALE
  5
129
102
{ACAD_REACTORS
330
112
102
}
330
112
100
AcDbScale
 70
     0
300
1:16
140
1.0
141
16.0
290
     0
  0
SCALE
  5
12A
102
{ACAD_REACTORS
330
112
102
}
330
112
100
AcDbScale
 70
     0
300
1:20_1
140
1.0
141
20.0
290
     0
  0
SCALE
  5
12B
102
{ACAD_REACTORS
330
112
102
}
330
112
100
AcDbScale
 70
     0
300
1:30
140
1.0
141
30.0
290
     0
  0
SCALE
  5
12C
102
{ACAD_REACTORS
330
112
102
}
330
112
100
AcDbScale
 70
     0
300
1:40
140
1.0
141
40.0
290
     0
  0
SCALE
  5
12D
102
{ACAD_REACTORS
330
112
102
}
330
112
100
AcDbScale
 70
     0
300
1:50_1
140
1.0
141
50.0
290
     0
  0
SCALE
  5
12E
102
{ACAD_REACTORS
330
112
102
}
330
112
100
AcDbScale
 70
     0
300
1:100_1
140
1.0
141
100.0
290
     0
  0
SCALE
  5
12F
102
{ACAD_REACTORS
330
112
102
}
330
112
100
AcDbScale
 70
     0
300
2:1
140
2.0
141
1.0
290
     0
  0
SCALE
  5
130
102
{ACAD_REACTORS
330
112
102
}
330
112
100
AcDbScale
 70
     0
300
4:1
140
4.0
141
1.0
290
     0
  0
SCALE
  5
131
102
{ACAD_REACTORS
330
112
102
}
330
112
100
AcDbScale
 70
     0
300
8:1
140
8.0
141
1.0
290
     0
  0
SCALE
  5
132
102
{ACAD_REACTORS
330
112
102
}
330
112
100
AcDbScale
 70
     0
300
10:1
140
10.0
141
1.0
290
     0
  0
SCALE
  5
133
102
{ACAD_REACTORS
330
112
102
}
330
112
100
AcDbScale
 70
     0
300
100:1
140
100.0
141
1.0
290
     0
  0
TABLESTYLE
  5
116
102
{ACAD_XDICTIONARY
360
117
102
}
102
{ACAD_REACTORS
330
113
102
}
330
113
100
AcDbTableStyle
280
     0
  3
Standard
 70
     0
 71
     0
 40
1.5
 41
1.5
280
     0
281
     0
  7
Standard
140
4.5
170
     2
 62
     0
 63
     7
283
     0
 90
      512
 91
        0
  1

274
    -2
284
     1
 64
     0
275
    -2
285
     1
 65
     0
276
    -2
286
     1
 66
     0
277
    -2
287
     1
 67
     0
278
    -2
288
     1
 68
     0
279
    -2
289
     1
 69
     0
  7
Standard
140
6.0
170
     5
 62
     0
 63
     7
283
     0
 90
      512
 91
        0
  1

274
    -2
284
     1
 64
     0
275
    -2
285
     1
 65
     0
276
    -2
286
     1
 66
     0
277
    -2
287
     1
 67
     0
278
    -2
288
     1
 68
     0
279
    -2
289
     1
 69
     0
  7
Standard
140
4.5
170
     5
 62
     0
 63
     7
283
     0
 90
      512
 91
        0
  1

274
    -2
284
     1
 64
     0
275
    -2
285
     1
 65
     0
276
    -2
286
     1
 66
     0
277
    -2
287
     1
 67
     0
278
    -2
288
     1
 68
     0
279
    -2
289
     1
 69
     0
  0
VISUALSTYLE
  5
105
102
{ACAD_XDICTIONARY
360
147
102
}
102
{ACAD_REACTORS
330
106
102
}
330
106
100
AcDbVisualStyle
  2
2dWireframe
 70
     4
177
     2
291
     0
 71
     0
176
     1
 72
     2
176
     1
 73
     1
176
     1
 90
        0
176
     1
 40
0.6
176
     1
 41
30.0
176
     1
 63
     7
421
 16777215
176
     1
 74
     1
176
     1
 91
        4
176
     1
 64
     7
176
     1
 65
   257
176
     1
 75
     1
176
     1
175
     1
176
     1
 42
1.0
176
     1
 92
        0
176
     1
 66
   257
176
     1
 43
1.0
176
     1
 76
     1
176
     1
 77
     6
176
     1
 78
     2
176
     1
 67
     7
176
     1
 79
     5
176
     1
170
     0
176
     1
171
     0
176
     1
290
     0
176
     1
 93
        1
176
     1
 44
0.0
176
     1
173
     0
176
     1
1001
ACAD
1000
AcDbSavedByObjectVersion
1070
     0
  0
VISUALSTYLE
  5
118
102
{ACAD_XDICTIONARY
360
149
102
}
102
{ACAD_REACTORS
330
106
102
}
330
106
100
AcDbVisualStyle
  2
Realistic
 70
     8
177
     2
291
     0
 71
     2
176
     1
 72
     2
176
     1
 73
     1
176
     1
 90
        0
176
     1
 40
0.6
176
     1
 41
30.0
176
     1
 63
     7
421
 16777215
176
     1
 74
     1
176
     1
 91
        0
176
     1
 64
     7
176
     1
 65
   257
176
     1
 75
     1
176
     1
175
     1
176
     1
 42
1.0
176
     1
 92
        8
176
     1
 66
     8
424
  7895160
176
     1
 43
1.0
176
     1
 76
     1
176
     1
 77
     6
176
     1
 78
     2
176
     1
 67
     7
176
     1
 79
     5
176
     1
170
     0
176
     1
171
     0
176
     1
290
     0
176
     1
 93
       13
176
     1
 44
0.0
176
     1
173
     0
176
     1
1001
ACAD
1000
AcDbSavedByObjectVersion
1070
     0
  0
VISUALSTYLE
  5
119
102
{ACAD_XDICTIONARY
360
14B
102
}
102
{ACAD_REACTORS
330
106
102
}
330
106
100
AcDbVisualStyle
  2
Wireframe
 70
     5
177
     2
291
     0
 71
     0
176
     1
 72
     2
176
     1
 73
     0
176
     1
 90
        0
176
     1
 40
0.6
176
     1
 41
30.0
176
     1
 63
     7
421
 16777215
176
     1
 74
     1
176
     1
 91
        4
176
     1
 64
     7
176
     1
 65
   257
176
     1
 75
     1
176
     1
175
     1
176
     1
 42
1.0
176
     1
 92
        0
176
     1
 66
   257
176
     1
 43
1.0
176
     1
 76
     1
176
     1
 77
     6
176
     1
 78
     2
176
     1
 67
     7
176
     1
 79
     3
176
     1
170
     0
176
     1
171
     0
176
     1
290
     0
176
     1
 93
        1
176
     1
 44
0.0
176
     1
173
     0
176
     1
1001
ACAD
1000
AcDbSavedByObjectVersion
1070
     0
  0
DICTIONARYVAR
  5
13A
102
{ACAD_REACTORS
330
135
102
}
330
135
100
DictionaryVariables
280
     0
  1
1:1000_1
  0
DICTIONARYVAR
  5
137
102
{ACAD_REACTORS
330
135
102
}
330
135
100
DictionaryVariables
280
     0
  1
STANDARD
  0
DICTIONARYVAR
  5
136
102
{ACAD_REACTORS
330
135
102
}
330
135
100
DictionaryVariables
280
     0
  1
STANDARD
  0
DICTIONARYVAR
  5
138
102
{ACAD_REACTORS
330
135
102
}
330
135
100
DictionaryVariables
280
     0
  1

  0
DICTIONARYVAR
  5
139
102
{ACAD_REACTORS
330
135
102
}
330
135
100
DictionaryVariables
280
     0
  1

  0
DICTIONARYVAR
  5
13B
102
{ACAD_REACTORS
330
135
102
}
330
135
100
DictionaryVariables
280
     0
  1
0
  0
DICTIONARY
  5
146
102
{ACAD_REACTORS
330
144
102
}
330
144
100
AcDbDictionary
281
     1
  0
DICTIONARY
  5
145
102
{ACAD_REACTORS
330
144
102
}
330
144
100
AcDbDictionary
281
     1
  3
8796081925360
350
13F
  3
8796081925376
350
140
  3
8796081925392
350
141
  3
8796081925408
350
142
  3
8796081925424
350
143
  0
DICTIONARY
  5
F0
330
EE
100
AcDbDictionary
280
     1
281
     1
  0
DICTIONARY
  5
E
330
C
100
AcDbDictionary
280
     1
281
     1
  3
BUMPTILE
360
F
  3
DIFFUSETILE
360
10
  3
OPACITYTILE
360
11
  3
REFLECTIONTILE
360
12
  0
DICTIONARY
  5
117
330
116
100
AcDbDictionary
280
     1
281
     1
  3
ACAD_ROUNDTRIP_2008_TABLESTYLE_CELLSTYLEMAP
360
13C
  0
DICTIONARY
  5
147
330
105
100
AcDbDictionary
280
     1
281
     1
  3
ACAD_XREC_ROUNDTRIP
360
148
  0
DICTIONARY
  5
149
330
118
100
AcDbDictionary
280
     1
281
     1
  3
ACAD_XREC_ROUNDTRIP
360
14A
  0
DICTIONARY
  5
14B
330
119
100
AcDbDictionary
280
     1
281
     1
  3
ACAD_XREC_ROUNDTRIP
360
14C
  0
XRECORD
  5
13F
102
{ACAD_REACTORS
330
145
102
}
330
145
100
AcDbXrecord
280
     1
  1
AcDb_Thumbnail_Schema
102
{ATTRRECORD
341
140
  2
AcDbDs::TreatedAsObjectData
280
     1
291
     1
102
ATTRRECORD}
102
{ATTRRECORD
341
141
  2
AcDbDs::Legacy
280
     1
291
     1
102
ATTRRECORD}
  2
AcDbDs::ID
280
    10
 91
        8
102
{ATTRRECORD
341
142
  2
AcDs:Indexable
280
     1
291
     1
102
ATTRRECORD}
102
{ATTRRECORD
341
143
  2
AcDbDs::HandleAttribute
280
     7
282
     1
102
ATTRRECORD}
  2
Thumbnail_Data
280
    15
 91
        0
  0
XRECORD
  5
140
102
{ACAD_REACTORS
330
145
102
}
330
145
100
AcDbXrecord
280
     1
  1
AcDbDs::TreatedAsObjectDataSchema
  2
AcDbDs::TreatedAsObjectData
280
     1
 91
        0
  0
XRECORD
  5
141
102
{ACAD_REACTORS
330
145
102
}
330
145
100
AcDbXrecord
280
     1
  1
AcDbDs::LegacySchema
  2
AcDbDs::Legacy
280
     1
 91
        0
  0
XRECORD
  5
142
102
{ACAD_REACTORS
330
145
102
}
330
145
100
AcDbXrecord
280
     1
  1
AcDbDs::IndexedPropertySchema
  2
AcDs:Indexable
280
     1
 91
        0
  0
XRECORD
  5
143
102
{ACAD_REACTORS
330
145
102
}
330
145
100
AcDbXrecord
280
     1
  1
AcDbDs::HandleAttributeSchema
  2
AcDbDs::HandleAttribute
280
     7
 91
        1
284
     1
  0
XRECORD
  5
F
102
{ACAD_REACTORS
330
E
102
}
330
E
100
AcDbXrecord
280
     1
270
     1
271
     1
  0
XRECORD
  5
10
102
{ACAD_REACTORS
330
E
102
}
330
E
100
AcDbXrecord
280
     1
270
     1
271
     1
  0
XRECORD
  5
11
102
{ACAD_REACTORS
330
E
102
}
330
E
100
AcDbXrecord
280
     1
270
     1
271
     1
  0
XRECORD
  5
12
102
{ACAD_REACTORS
330
E
102
}
330
E
100
AcDbXrecord
280
     1
270
     1
271
     1
  0
CELLSTYLEMAP
  5
13C
102
{ACAD_REACTORS
330
117
102
}
330
117
100
AcDbCellStyleMap
 90
        3
300
CELLSTYLE
  1
TABLEFORMAT_BEGIN
 90
        5
170
     1
 91
        0
 92
    32768
 62
   257
 93
        1
300
CONTENTFORMAT
  1
CONTENTFORMAT_BEGIN
 90
        0
 91
        0
 92
      512
 93
        0
300

 40
0.0
140
1.0
 94
        5
 62
     0
340
FC
144
6.0
309
CONTENTFORMAT_END
171
     1
301
MARGIN
  1
CELLMARGIN_BEGIN
 40
1.5
 40
1.5
 40
1.5
 40
1.5
 40
4.5
 40
4.5
309
CELLMARGIN_END
 94
        6
 95
        1
302
GRIDFORMAT
  1
GRIDFORMAT_BEGIN
 90
        0
 91
        1
 62
     0
 92
       -2
340
FF
 93
        0
 40
1.125
309
GRIDFORMAT_END
 95
        2
302
GRIDFORMAT
  1
GRIDFORMAT_BEGIN
 90
        0
 91
        1
 62
     0
 92
       -2
340
FF
 93
        0
 40
1.125
309
GRIDFORMAT_END
 95
        4
302
GRIDFORMAT
  1
GRIDFORMAT_BEGIN
 90
        0
 91
        1
 62
     0
 92
       -2
340
FF
 93
        0
 40
1.125
309
GRIDFORMAT_END
 95
        8
302
GRIDFORMAT
  1
GRIDFORMAT_BEGIN
 90
        0
 91
        1
 62
     0
 92
       -2
340
FF
 93
        0
 40
1.125
309
GRIDFORMAT_END
 95
       16
302
GRIDFORMAT
  1
GRIDFORMAT_BEGIN
 90
        0
 91
        1
 62
     0
 92
       -2
340
FF
 93
        0
 40
1.125
309
GRIDFORMAT_END
 95
       32
302
GRIDFORMAT
  1
GRIDFORMAT_BEGIN
 90
        0
 91
        1
 62
     0
 92
       -2
340
FF
 93
        0
 40
1.125
309
GRIDFORMAT_END
309
TABLEFORMAT_END
  1
CELLSTYLE_BEGIN
 90
        1
 91
        1
300
_TITLE
309
CELLSTYLE_END
300
CELLSTYLE
  1
TABLEFORMAT_BEGIN
 90
        5
170
     1
 91
        0
 92
        0
 62
   257
 93
        1
300
CONTENTFORMAT
  1
CONTENTFORMAT_BEGIN
 90
        0
 91
        0
 92
      512
 93
        0
300

 40
0.0
140
1.0
 94
        5
 62
     0
340
FC
144
4.5
309
CONTENTFORMAT_END
171
     1
301
MARGIN
  1
CELLMARGIN_BEGIN
 40
1.5
 40
1.5
 40
1.5
 40
1.5
 40
4.5
 40
4.5
309
CELLMARGIN_END
 94
        6
 95
        1
302
GRIDFORMAT
  1
GRIDFORMAT_BEGIN
 90
        0
 91
        1
 62
     0
 92
       -2
340
FF
 93
        0
 40
1.125
309
GRIDFORMAT_END
 95
        2
302
GRIDFORMAT
  1
GRIDFORMAT_BEGIN
 90
        0
 91
        1
 62
     0
 92
       -2
340
FF
 93
        0
 40
1.125
309
GRIDFORMAT_END
 95
        4
302
GRIDFORMAT
  1
GRIDFORMAT_BEGIN
 90
        0
 91
        1
 62
     0
 92
       -2
340
FF
 93
        0
 40
1.125
309
GRIDFORMAT_END
 95
        8
302
GRIDFORMAT
  1
GRIDFORMAT_BEGIN
 90
        0
 91
        1
 62
     0
 92
       -2
340
FF
 93
        0
 40
1.125
309
GRIDFORMAT_END
 95
       16
302
GRIDFORMAT
  1
GRIDFORMAT_BEGIN
 90
        0
 91
        1
 62
     0
 92
       -2
340
FF
 93
        0
 40
1.125
309
GRIDFORMAT_END
 95
       32
302
GRIDFORMAT
  1
GRIDFORMAT_BEGIN
 90
        0
 91
        1
 62
     0
 92
       -2
340
FF
 93
        0
 40
1.125
309
GRIDFORMAT_END
309
TABLEFORMAT_END
  1
CELLSTYLE_BEGIN
 90
        2
 91
        1
300
_HEADER
309
CELLSTYLE_END
300
CELLSTYLE
  1
TABLEFORMAT_BEGIN
 90
        5
170
     1
 91
        0
 92
        0
 62
   257
 93
        1
300
CONTENTFORMAT
  1
CONTENTFORMAT_BEGIN
 90
        0
 91
        0
 92
      512
 93
        0
300

 40
0.0
140
1.0
 94
        2
 62
     0
340
FC
144
4.5
309
CONTENTFORMAT_END
171
     1
301
MARGIN
  1
CELLMARGIN_BEGIN
 40
1.5
 40
1.5
 40
1.5
 40
1.5
 40
4.5
 40
4.5
309
CELLMARGIN_END
 94
        6
 95
        1
302
GRIDFORMAT
  1
GRIDFORMAT_BEGIN
 90
        0
 91
        1
 62
     0
 92
       -2
340
FF
 93
        0
 40
1.125
309
GRIDFORMAT_END
 95
        2
302
GRIDFORMAT
  1
GRIDFORMAT_BEGIN
 90
        0
 91
        1
 62
     0
 92
       -2
340
FF
 93
        0
 40
1.125
309
GRIDFORMAT_END
 95
        4
302
GRIDFORMAT
  1
GRIDFORMAT_BEGIN
 90
        0
 91
        1
 62
     0
 92
       -2
340
FF
 93
        0
 40
1.125
309
GRIDFORMAT_END
 95
        8
302
GRIDFORMAT
  1
GRIDFORMAT_BEGIN
 90
        0
 91
        1
 62
     0
 92
       -2
340
FF
 93
        0
 40
1.125
309
GRIDFORMAT_END
 95
       16
302
GRIDFORMAT
  1
GRIDFORMAT_BEGIN
 90
        0
 91
        1
 62
     0
 92
       -2
340
FF
 93
        0
 40
1.125
309
GRIDFORMAT_END
 95
       32
302
GRIDFORMAT
  1
GRIDFORMAT_BEGIN
 90
        0
 91
        1
 62
     0
 92
       -2
340
FF
 93
        0
 40
1.125
309
GRIDFORMAT_END
309
TABLEFORMAT_END
  1
CELLSTYLE_BEGIN
 90
        3
 91
        2
300
_DATA
309
CELLSTYLE_END
  0
XRECORD
  5
148
102
{ACAD_REACTORS
330
147
102
}
330
147
100
AcDbXrecord
280
     1
102
RTVSPost2010Prop28
280
     1
102
RTVSPost2010PropOp28
 70
     1
102
RTVSPost2010Prop29
280
     1
102
RTVSPost2010PropOp29
 70
     1
102
RTVSPost2010Prop30
280
     0
102
RTVSPost2010PropOp30
 70
     1
102
RTVSPost2010Prop31
280
     0
102
RTVSPost2010PropOp31
 70
     1
102
RTVSPost2010Prop32
280
     0
102
RTVSPost2010PropOp32
 70
     1
102
RTVSPost2010Prop33
280
     0
102
RTVSPost2010PropOp33
 70
     1
102
RTVSPost2010Prop34
280
     0
102
RTVSPost2010PropOp34
 70
     1
102
RTVSPost2010Prop35
280
     0
102
RTVSPost2010PropOp35
 70
     1
102
RTVSPost2010Prop36
280
     0
102
RTVSPost2010PropOp36
 70
     1
102
RTVSPost2010Prop37
 90
       50
102
RTVSPost2010PropOp37
 70
     1
102
RTVSPost2010Prop38
140
0.0
102
RTVSPost2010PropOp38
 70
     1
102
RTVSPost2010Prop39
140
1.0
102
RTVSPost2010PropOp39
 70
     1
102
RTVSPost2010Prop40
 90
        0
102
RTVSPost2010PropOp40
 70
     1
102
RTVSPost2010Prop41ColorIndex
 90
       18
102
RTVSPost2010Prop41ColorRGB
 90
        0
102
RTVSPost2010PropOp41
 70
     1
102
RTVSPost2010Prop42
 90
       50
102
RTVSPost2010PropOp42
 70
     1
102
RTVSPost2010Prop43
 90
        3
102
RTVSPost2010PropOp43
 70
     1
102
RTVSPost2010Prop44ColorIndex
 90
        5
102
RTVSPost2010Prop44ColorRGB
 90
      255
102
RTVSPost2010PropOp44
 70
     1
102
RTVSPost2010Prop45
280
     0
102
RTVSPost2010PropOp45
 70
     1
102
RTVSPost2010Prop46
 90
       50
102
RTVSPost2010PropOp46
 70
     1
102
RTVSPost2010Prop47
 90
       50
102
RTVSPost2010PropOp47
 70
     1
102
RTVSPost2010Prop48
 90
       50
102
RTVSPost2010PropOp48
 70
     1
102
RTVSPost2010Prop49
280
     0
102
RTVSPost2010PropOp49
 70
     1
102
RTVSPost2010Prop50
 90
       50
102
RTVSPost2010PropOp50
 70
     1
102
RTVSPost2010Prop51ColorIndex
 90
      256
102
RTVSPost2010Prop51ColorRGB
 90
-16777216
102
RTVSPost2010PropOp51
 70
     0
102
RTVSPost2010Prop52
140
1.0
102
RTVSPost2010PropOp52
 70
     0
102
RTVSPost2010Prop53
 90
        2
102
RTVSPost2010PropOp53
 70
     1
102
RTVSPost2010Prop54
  1
strokes_ogs.tif
102
RTVSPost2010PropOp54
 70
     1
102
RTVSPost2010Prop55
280
     0
102
RTVSPost2010PropOp55
 70
     1
102
RTVSPost2010Prop56
140
1.0
102
RTVSPost2010PropOp56
 70
     1
102
RTVSPost2010Prop57
140
1.0
102
RTVSPost2010PropOp57
 70
     1
  0
XRECORD
  5
14A
102
{ACAD_REACTORS
330
149
102
}
330
149
100
AcDbXrecord
280
     1
102
RTVSPost2010Prop28
280
     0
102
RTVSPost2010PropOp28
 70
     1
102
RTVSPost2010Prop29
280
     1
102
RTVSPost2010PropOp29
 70
     1
102
RTVSPost2010Prop30
280
     1
102
RTVSPost2010PropOp30
 70
     1
102
RTVSPost2010Prop31
280
     0
102
RTVSPost2010PropOp31
 70
     1
102
RTVSPost2010Prop32
280
     0
102
RTVSPost2010PropOp32
 70
     1
102
RTVSPost2010Prop33
280
     0
102
RTVSPost2010PropOp33
 70
     1
102
RTVSPost2010Prop34
280
     0
102
RTVSPost2010PropOp34
 70
     1
102
RTVSPost2010Prop35
280
     0
102
RTVSPost2010PropOp35
 70
     1
102
RTVSPost2010Prop36
280
     0
102
RTVSPost2010PropOp36
 70
     1
102
RTVSPost2010Prop37
 90
       50
102
RTVSPost2010PropOp37
 70
     1
102
RTVSPost2010Prop38
140
0.0
102
RTVSPost2010PropOp38
 70
     1
102
RTVSPost2010Prop39
140
1.0
102
RTVSPost2010PropOp39
 70
     1
102
RTVSPost2010Prop40
 90
        0
102
RTVSPost2010PropOp40
 70
     1
102
RTVSPost2010Prop41ColorIndex
 90
       18
102
RTVSPost2010Prop41ColorRGB
 90
        0
102
RTVSPost2010PropOp41
 70
     1
102
RTVSPost2010Prop42
 90
       50
102
RTVSPost2010PropOp42
 70
     1
102
RTVSPost2010Prop43
 90
        3
102
RTVSPost2010PropOp43
 70
     1
102
RTVSPost2010Prop44ColorIndex
 90
        5
102
RTVSPost2010Prop44ColorRGB
 90
      255
102
RTVSPost2010PropOp44
 70
     1
102
RTVSPost2010Prop45
280
     0
102
RTVSPost2010PropOp45
 70
     1
102
RTVSPost2010Prop46
 90
       50
102
RTVSPost2010PropOp46
 70
     1
102
RTVSPost2010Prop47
 90
       50
102
RTVSPost2010PropOp47
 70
     1
102
RTVSPost2010Prop48
 90
       50
102
RTVSPost2010PropOp48
 70
     1
102
RTVSPost2010Prop49
280
     0
102
RTVSPost2010PropOp49
 70
     1
102
RTVSPost2010Prop50
 90
       50
102
RTVSPost2010PropOp50
 70
     1
102
RTVSPost2010Prop51ColorIndex
 90
      256
102
RTVSPost2010Prop51ColorRGB
 90
-16777216
102
RTVSPost2010PropOp51
 70
     0
102
RTVSPost2010Prop52
140
1.0
102
RTVSPost2010PropOp52
 70
     0
102
RTVSPost2010Prop53
 90
        2
102
RTVSPost2010PropOp53
 70
     1
102
RTVSPost2010Prop54
  1
strokes_ogs.tif
102
RTVSPost2010PropOp54
 70
     1
102
RTVSPost2010Prop55
280
     0
102
RTVSPost2010PropOp55
 70
     1
102
RTVSPost2010Prop56
140
1.0
102
RTVSPost2010PropOp56
 70
     1
102
RTVSPost2010Prop57
140
1.0
102
RTVSPost2010PropOp57
 70
     1
  0
XRECORD
  5
14C
102
{ACAD_REACTORS
330
14B
102
}
330
14B
100
AcDbXrecord
280
     1
102
RTVSPost2010Prop28
280
     0
102
RTVSPost2010PropOp28
 70
     1
102
RTVSPost2010Prop29
280
     1
102
RTVSPost2010PropOp29
 70
     1
102
RTVSPost2010Prop30
280
     1
102
RTVSPost2010PropOp30
 70
     1
102
RTVSPost2010Prop31
280
     0
102
RTVSPost2010PropOp31
 70
     1
102
RTVSPost2010Prop32
280
     0
102
RTVSPost2010PropOp32
 70
     1
102
RTVSPost2010Prop33
280
     0
102
RTVSPost2010PropOp33
 70
     1
102
RTVSPost2010Prop34
280
     0
102
RTVSPost2010PropOp34
 70
     1
102
RTVSPost2010Prop35
280
     0
102
RTVSPost2010PropOp35
 70
     1
102
RTVSPost2010Prop36
280
     0
102
RTVSPost2010PropOp36
 70
     1
102
RTVSPost2010Prop37
 90
       50
102
RTVSPost2010PropOp37
 70
     1
102
RTVSPost2010Prop38
140
0.0
102
RTVSPost2010PropOp38
 70
     1
102
RTVSPost2010Prop39
140
1.0
102
RTVSPost2010PropOp39
 70
     1
102
RTVSPost2010Prop40
 90
        0
102
RTVSPost2010PropOp40
 70
     1
102
RTVSPost2010Prop41ColorIndex
 90
       18
102
RTVSPost2010Prop41ColorRGB
 90
        0
102
RTVSPost2010PropOp41
 70
     1
102
RTVSPost2010Prop42
 90
       50
102
RTVSPost2010PropOp42
 70
     1
102
RTVSPost2010Prop43
 90
        3
102
RTVSPost2010PropOp43
 70
     1
102
RTVSPost2010Prop44ColorIndex
 90
        5
102
RTVSPost2010Prop44ColorRGB
 90
      255
102
RTVSPost2010PropOp44
 70
     1
102
RTVSPost2010Prop45
280
     0
102
RTVSPost2010PropOp45
 70
     1
102
RTVSPost2010Prop46
 90
       50
102
RTVSPost2010PropOp46
 70
     1
102
RTVSPost2010Prop47
 90
       50
102
RTVSPost2010PropOp47
 70
     1
102
RTVSPost2010Prop48
 90
       50
102
RTVSPost2010PropOp48
 70
     1
102
RTVSPost2010Prop49
280
     0
102
RTVSPost2010PropOp49
 70
     1
102
RTVSPost2010Prop50
 90
       50
102
RTVSPost2010PropOp50
 70
     1
102
RTVSPost2010Prop51ColorIndex
 90
      256
102
RTVSPost2010Prop51ColorRGB
 90
-16777216
102
RTVSPost2010PropOp51
 70
     0
102
RTVSPost2010Prop52
140
1.0
102
RTVSPost2010PropOp52
 70
     0
102
RTVSPost2010Prop53
 90
        2
102
RTVSPost2010PropOp53
 70
     1
102
RTVSPost2010Prop54
  1
strokes_ogs.tif
102
RTVSPost2010PropOp54
 70
     1
102
RTVSPost2010Prop55
280
     0
102
RTVSPost2010PropOp55
 70
     1
102
RTVSPost2010Prop56
140
1.0
102
RTVSPost2010PropOp56
 70
     1
102
RTVSPost2010Prop57
140
1.0
102
RTVSPost2010PropOp57
 70
     1
  0
ENDSEC
  0
EOF
